Ads

Emerald Hill Zone (Sonic the Hedgehog 2) Guitar Tab

Submitted: Jan 17, 2010 by LTRobson (Last updated: Jan 19, 2010)

4.666665
Average: 4.7 (3 votes)
Download | Listen
Game: Sonic the Hedgehog 2
Composer(s): Masato Nakamura
Style: Arrangement, Fingerstyle
Series: Sonic the Hedgehog

AutoScroll: Slow | Medium | Fast
Sonic The Hedgehog 2 - Emerald Hill Zone (Mega Drive)
Simple solo guitar arrangement
Tabbed by LTRobson Jan 2010

Standard tuning

|-1--3-----0----1-
|-3--5------------
|-----------------
|-----------------
|-1--3-----0----1-
|-----------------

|----------------------0----------------------
|-------------1--1--3--------3--------1----3--
|----0--2--0-----------------------2----------
|-------------------------0-----0-----0-----0-
|-3-----3-----3-----3-------------------------
|---------------------------------------------

|---------------------------------------
|---------1--3--1---1-------------------
|-------3---3-----3----2----------------
|---------------------------------------
|-1----1-----1----1----0----2----3----0-
|---------------------------------------

|----------------------0----------------------
|-------------1--1--3--------3--------1----3--
|----0--2--0-----------------------2----------
|-------------------------0-----0-----0-----0-
|-3-----3-----3-----3-------------------------
|---------------------------------------------

|---------------------------------------------
|----------1--3--1----1-----------------------
|--------3---3------3-----2-------------------
|---------------------------------------------
|-1-----1-----1-----1-----0-----2-----3-----0-
|---------------------------------------------

|---------------------------------------------
|-1-------------------1---0-1p0-------0-1p0---
|----------2--------2-------------------------
|---------------------------------------------
|---------------------------------------------
|-1-----1-----1-----1-----0-----0-----0-----0-

|---------------------------------------------
|-------0--1--3--1--0--3--1--1----------------
|----------------------------------2----------
|---------------------------------------------
|-2-----2-----2-----2-----0-----2-----3-----0-
|---------------------------------------------

|---------------------------------------------
|-1-------------------1---0-1p0-------0-1p0---
|----------2--------2-------------------------
|---------------------------------------------
|---------------------------------------------
|-1-----1-----1-----1-----0-----0-----0-----0-

|--------------------------------------------
|-3p1----------------------------------------
|-----2--------------------------------------
|-----2------------------------------0-------
|-----0-------------------0-0--0-2-3---3-2-0-
|-3------------------------------------------

Login or Register to remove this ad.

10 comments on Emerald Hill Zone

Simple bass line - just plod

Simple bass line - just plod through 4 beats to a bar and look at the melody separately to start off, then try and keep a steady rhythm while you play both!

I think you should be able to

I think you should be able to click edit and add that information to the tab directly. I have an edit button anyway. I just edited your name from LTRosbon to LTRobson on this tab XD

Hehe :P Do you have an edit

Hehe :P

Do you have an edit on the tab page? Mine doesn't have one.

you should be able to edit

you should be able to edit your own tabs after they have been uploaded

This is what I've got:

This is what I've got:

:o I thought Archard gave

:o

I thought Archard gave edit buttons to people for their own tabs! I must have mis-read or mis-remembered.

It would certainly be handy

It would certainly be handy to correct little mistakes.

auriplane said :o I thought

auriplane said

:o

I thought Archard gave edit buttons to people for their own tabs! I must have mis-read or mis-remembered.

I haven't given LT permissions to add or edit tabs, but I suppose if he's gonna be a regular submitter he can hop on board.

i thought you once said that

i thought you once said that all people could edit their own tabs

This tab I think was

5

This tab I think was flawless.Beautiful!