Aquatic Ruin Zone (Sonic the Hedgehog 2) Bass Tab

Submitted: Jan 18, 2010 by auriplane (Last updated: Jan 18, 2010)

0
Download | Listen
Game: Sonic the Hedgehog 2
Composer(s): Masato Nakamura
Style: Transcription
Series: Sonic the Hedgehog

AutoScroll: Slow | Medium | Fast
            Sonic the Hedgehog 2 - Aquatic Ruin Zone BASS TAB
                        Composed by Masato Nakamura

                  Tabbed by Auriplane ([email protected])



Four-string bass version.  Scroll down for five-string bass.  This
version is in DROP-D tuning, and the other is in standard.  The "T"s
near the end are eighth note triplets.


                                                                    SS 
                                                               G |----|
                 FOUR-STRING VERSION (Drop-D tuning)           D |----|
                                                               A |--35|
                                                               E |----|
          


   W                H       E. SSSSS W                H       E. SSE.
G |----------------|----------------|----------------|----------------|
D |----------------|----------------|----------------|----------------|
A |----------------|-----------00-35|----------------|-----------00---|
D |0---------------|L---------------|0---------------|L---------------|


   E. E. E E. E. E  E. E. E E. E. E  E. E. E E. E. E  E. E. E E SSSSE
G |----------------|----------------|----------------|----------------|
D |----------------|----------------|----------------|----------------|
A |-----------3----|-----------1----|--------------4-|----------0---0-|
D |---5--8-------5-|---3--7-------3-|---2--5----7----|---0--4----245--|


   E. E. E E. E. E  E. E. E E. E. E  E. E. E E. E. E  E. SE E SE SSE. 
G |----------------|----------------|----------------|----------------|
D |----------------|----------------|---2----------2-|----------------|
A |-----------3----|-----------1----|------4----0----|---55-0-00-050--|
D |---5--8-------5-|---3--7-------3-|----------------|----------------|


   E. E. E E. E. E  E. E. E E. E. E  E. E. E E. E. E  E. E. E T T T T T T
G |----------------|----------------|----------------|--------------------|
D |----------------|----------------|---2------------|--------------------|
A |---5-------5----|---3-------3----|------4-0-----0-|5-----------------0-|
D |5-----5-5-----5-|3-----3-3-----3-|2----------2----|---7--4---0-2-4-5---|


   E. E. E SE E. E  E. E. E E. E. E  E. E. E E. E. E  SSSE. SSSE. E SS
G |----------------|----------------|----------------|----------------|
D |------5--5------|------3-3-------|----------------|----------------|
A |---5-------5----|---3-------3--0-|---0--4-7--4--0-|555---555-----35|
D |5-------------5-|3---------------|2---------------|----------------|








                                                                    SS 
                                                               G |----|
                                                               D |----|
                    FIVE-STRING VERSION (Standard tuning)      A |--35|
                                                               E |----|
                                                               B |----|
          


   W                H       E. SSSSS W                H       E. SSE.
G |----------------|----------------|----------------|----------------|
D |----------------|----------------|----------------|----------------|
A |----------------|--------------35|----------------|----------------|
E |----------------|-----------55---|----------------|-----------55---|
B |3---------------|L---------------|3---------------|L---------------|


   E. E. E E. E. E  E. E. E E. E. E  E. E. E E. E. E  E. E. E E SSSSE
G |----------------|----------------|----------------|----------------|
D |----------------|----------------|----------------|----------------|
A |-----------3----|----------------|--------------4-|----------------|
E |---3--6-------3-|------5----6----|------3----5----|------2---50135-|
B |----------------|---6----------6-|---5------------|---3------------|


   E. E. E E. E. E  E. E. E E. E. E  E. E. E E. E. E  E. SE E SE SSE. 
G |----------------|----------------|----------------|----------------|
D |----------------|----------------|----------------|----------------|
A |-----------3----|----------------|---7--4-------7-|---55-------5---|
E |---3--6-------3-|------5----6----|-----------5----|------5-55-5-5--|
B |----------------|---6----------6-|----------------|----------------|


   E. E. E E. E. E  E. E. E E. E. E  E. E. E E. E. E  E. E. E T T T T T T
G |----------------|----------------|----------------|--------------------|
D |----------------|----------------|----------------|--------------------|
A |---5-------5----|---3-------3----|---7--4---------|5-------------------|
E |3-----3-3-----3-|----------------|--------5-----5-|---5--2-------2-3-5-|
B |----------------|6-----6-6-----6-|5----------5----|----------3-5-------|


   E. E. E SE E. E  E. E. E E. E. E  E. E. E E. E. E  SSSE. SSSE. E SS
G |----------------|----------------|----------------|----------------|
D |------5--5------|------3-3-------|----------------|----------------|
A |---5-------5----|---3-------3----|------4-7--4----|555---555-----35|
E |3-------------3-|1-------------5-|0--5----------5-|----------------|
B |----------------|----------------|----------------|----------------|




Duration Legend
---------------
W - whole
H - half
Q - quarter
E - 8th
S - 16th
T - 8th note triplet
. - note dotted


Tablature Legend
----------------
L - tied note

Login or Register to remove this ad.