Ads

Crisis City Act 2 (Sonic Generations) Guitar Tab

Submitted: Oct 14, 2013 by Shrinx

4.5
Average: 4.5 (2 votes)
Download | Listen
Game: Sonic Generations
Composer(s): Various Composers
Style: Transcription
Series: Sonic the Hedgehog

AutoScroll: Slow | Medium | Fast
Crisis City Act 2
Sonic Generations
Composed by Tomoya Ohtani and SEGA
Tabbed by Shrinx

Standard Tuning (EADGBe)


e|--------|--------|---------|--------|------2-|
B|1---1---|1---1---|1-4--1---|1---1---|1---1---|
G|--------|--------|---------|--------|--------|4x
D|--------|--------|---------|--------|--------|
A|--------|--------|---------|--------|--------|
E|--------|--------|---------|--------|--------|

 |Repeat starts here
e|--------|--------|--------|1-------|
B|1-------|3-------|4-------|--------|
G|--------|--------|--------|--------|
D|--------|--------|--------|--------|
A|--------|--------|--------|--------|
E|--------|--------|--------|--------|

e|--------|--------|--------|1-------|3-------|--------|1-3-6-3-|---8----|
B|1-------|3-------|4-------|--------|--------|----1-3-|--------|--------|
G|--------|--------|--------|--------|--------|--------|--------|--------|
D|--------|--------|--------|--------|--------|--------|--------|--------|
A|--------|--------|--------|--------|--------|--------|--------|--------|
E|--------|--------|--------|--------|--------|--------|--------|--------|

e|6h8-6-6-|5-5-3-3-|1-1-3---|----3h6-|3---8---|10---13---|--------|
B|--------|--------|--------|--------|--------|----------|--------|
G|--------|--------|--------|--------|--------|----------|--------|
D|--------|--------|--------|--------|--------|----------|--------|
A|--------|--------|--------|--------|--------|----------|3-------|
E|--------|--------|--------|--------|--------|----------|--------|

e|--------|--------|--------|--------|--------|--------|3---1---|--------|
B|--------|--------|--------|--------|--------|----1---|--------|3---3h4-|
G|--------|----0---|--------|--------|--------|--------|--------|--------|
D|1-0-4---|--------|--------|1---0---|--------|--------|--------|--------|
A|--------|--------|3-------|--------|--------|--------|--------|--------|
E|--------|--------|--------|--------|--------|--------|--------|--------|

e|--------|3---6---|8---5h6-|5-------|3---1---|--------|--------|3---6---|
B|3---1---|--------|--------|--6-1---|--------|3---3h4-|3---1---|--------|
G|--3-----|--------|--------|--------|--------|--------|--3-----|--------|
D|--------|--------|--------|--------|--------|--------|--------|--------|
A|--------|--------|--------|--------|--------|--------|--------|--------|
E|--------|--------|--------|--------|--------|--------|--------|--------|

e|8---5h6-|5-------|--------|--------|--------|-----13-10-|--------|6p5-6---|
B|--------|--6-----|--------|--------|----1---|---11------|----1---|--------|
G|--------|--------|--------|--------|2-3-----|10---------|-3------|--------|
D|--------|--------|----0---|1p0-1---|--------|-----------|--------|--------|
A|--------|----3---|--------|--------|--------|-----------|--------|--------|
E|--------|--------|--------|--------|--------|-----------|--------|--------|

e|--6-8---|--------|8-10----|--------|1-3-6-3-|----8---|6h8-6-6-|5-5-3-3-|
B|6-------|-------8|-----8--|--------|--------|--------|--------|--------|
G|--------|--10-7--|--------|------2-|--------|--------|--------|--------|
D|--------|10------|--------|----0---|--------|--------|--------|--------|
A|------10|--------|--------|--------|--------|--------|--------|--------|
E|--------|--------|--------|--------|--------|--------|--------|--------|

e|1-1-3---|----3h6-|3---8---|10--13---|---------|3---1---|--------|--------|
B|--------|--------|--------|---------|-----1---|--------|3---3h4-|3---1---|
G|--------|--------|--------|---------|---------|--------|--------|--3-----|
D|--------|--------|--------|---------|---------|--------|--------|--------|
A|--------|--------|--------|---------|---------|--------|--------|--------|
E|--------|--------|--------|---------|---------|--------|--------|--------|

e|3---6---|8---5h6-|5-------|3---1---|--------|--------|3---6---|8---5h6-|
B|--------|--------|--6-1---|--------|3---3h4-|3---1---|--------|--------|
G|--------|--------|--------|--------|--------|--3-----|--------|--------|
D|--------|--------|--------|--------|--------|--------|--------|--------|
A|--------|--------|--------|--------|--------|--------|--------|--------|
E|--------|--------|--------|--------|--------|--------|--------|--------|

e|5-------|--------|--------|--------|--------|--2-----|--------|--------|
B|--6-1---|1---1---|1---1-4-|1---1---|1---1---|1---1---|1---1---|1---1-4-|
G|--------|--------|--------|--------|--------|--------|--------|--------|
D|--------|--------|--------|--------|--------|--------|--------|--------|
A|--------|--------|--------|--------|--------|--------|--------|--------|
E|--------|--------|--------|--------|--------|--------|--------|--------|

e|--------|--------|--------|1---3---|----6---|5---3---|1---3---|--------|
B|1---1---|1-------|----4---|--------|1-------|--------|--------|--------|
G|--------|--------|--------|--------|--------|--------|--------|--------|
D|--------|--------|--------|--------|--------|--------|--------|--------|
A|--------|--------|--------|--------|--------|--------|--------|--------|
E|--------|--------|--------|--------|--------|--------|--------|--------|

e|--------|--------|--------|1---3---|----6---|5---3---|8-------|--------|
B|--------|--------|----4---|--------|1-------|--------|----8---|--------|
G|--------|--------|--------|--------|--------|--------|--------|--------|
D|--------|--------|--------|--------|--------|--------|--------|--------|
A|--------|--------|--------|--------|--------|--------|--------|--------|
E|--------|--------|--------|--------|--------|--------|--------|--------|

e|--------|-----10-8|--------|1---3---|----6---|5---3---|1---3---|--------|
B|--------|---8-----|8-6-4---|--------|1-------|--------|--------|--------|
G|--------|---------|--------|--------|--------|--------|--------|--------|
D|--------|---------|--------|--------|--------|--------|--------|--------|
A|--------|---------|--------|--------|--------|--------|--------|--------|
E|--------|---------|--------|--------|--------|--------|--------|--------|

e|--------|--------|--------|1---3---|----6---|5---3---|8-------|--------|
B|--------|--------|----4---|--------|1-------|--------|----8---|--------|
G|--------|--------|--------|--------|--------|--------|--------|--------|
D|--------|--------|--------|--------|--------|--------|--------|--------|
A|--------|--------|--------|--------|--------|--------|--------|--------|
E|--------|--------|--------|--------|--------|--------|--------|--------|

e|--------|--------|----3---|--3-4---|
B|--3-4---|3-4-6-3-|4-6---4-|6-----6-|
G|5-----5-|--------|--------|--------|3x
D|--------|--------|--------|--------|
A|--------|--------|--------|--------|
E|--------|--------|--------|--------|

e|--------|--------|----3---|--3-4-8-|
B|--3-4---|3-4-6-3-|4-6---4-|6-------|
G|5-----5-|--------|--------|--------|1x
D|--------|--------|--------|--------|
A|--------|--------|--------|--------|
E|--------|--------|--------|--------|

e|--------|--------|----3---|--3-4---|
B|--3-4---|3-4-6-3-|4-6---4-|6-----6-|
G|5-----5-|--------|--------|--------|1x
D|--------|--------|--------|--------|
A|--------|--------|--------|--------|
E|--------|--------|--------|--------|

e|--------|--------|----3---|--3-4-8-|
B|--3-4---|3-4-6-3-|4-6---4-|6-------|
G|5-----5-|--------|--------|--------|1x
D|--------|--------|--------|--------|
A|--------|--------|--------|--------|
E|--------|--------|--------|--------|

e|--------|--------|13------|13-15---|13-15-16|13------|
B|13-15-16|13-15-16|---15-16|------16|--------|--------|
G|--------|--------|--------|--------|--------|--------|2x
D|--------|--------|--------|--------|--------|--------|
A|--------|--------|--------|--------|--------|--------|
E|--------|--------|--------|--------|--------|--------|

Repeat from the previously mentioned point.


One of my all-time favourite tracks, so this was an absolute joy to tab!

This track can get kind of complex, so I've tried to make it as simple as I could,
but some parts may be tricky to nail. There are some fast sections too, so this one
will require some practice. This is just a tab of the main melody, but I hope
to write up a transcription using multiple guitars soon.
Login or Register to remove this ad.

3 comments on Crisis City Act 2

pretty hard to do but good

4

pretty hard to do but good job.

One little thing...

I should mention that this track is not actually in the 3DS version of Sonic Generations, as Crisis City is not a playable track in that version. I don't know if this will actually matter in the long run, but I thought I would just clear that up.

Well tabbed m8. Hard but fun

5

Well tabbed m8. Hard but fun to play.