Ads

Aquarium Park Act 1 (Sonic Colors) Guitar Tab

Submitted: May 13, 2016 by Dao Jarlen

0
Download | Listen
Game: Sonic Colors
Composer(s): Fumie Kumatani, Hideaki Kobayashi, Mariko Nanba, Kenichi Tokoi, Tomoya Ohtani
Style: Arrangement, Fingerstyle, Percussion
Series: Sonic the Hedgehog

AutoScroll: Slow | Medium | Fast
Aquarium Park Act 1
Music by Tomoya Ohtani
Arranged for solo guitar by Dao Jarlen
Video and good recording coming soon...


Tempo = 300
Standard tuning
Capo on 1
x - dead note
L - let ring


E |----------------|----------|----------------|----------|----------------|
B |--0--------0L---|--0-------|--0--------0L---|--0-------|--0--------0L---|
G |--1--------1L---|--1-------|--2--------2L---|--2-------|--1--------1L---|
D |--2--------2L---|--2-------|--2--------2L---|--2-------|--2--------2L---|
A |----------------|----------|----------------|----------|----------------|
E |----------------|----------|----------------|----------|----------------|


----------|----------------|----------||---------------|----------|
--0-------|--0--------0L---|--0-------||-0--------0L---|--0-------|
--1-------|--2--------2L---|--2-------||o1--------1L---|--1-------|
--2-------|--2--------2L---|--2-------||o2--------2L---|--2-------|
----------|----------------|----------||---------------|----------|
----------|----------------|-----x----||-------x-------|-----x----|


----------------|----------|----------------|----------|-------|
--0--------0L---|--0-------|--0--------0L---|--0-------|--0L---|
--2--------2L---|--2-------|--1--------1L---|--1-------|--2L---|
--2--------2L---|--2-------|--2--------2L---|--2-------|--2L---|
----------------|----------|----------------|----------|--0L---|
--------x-------|-----x----|--------x-------|-----x----|-------|


----------------|--2--4--2-------|--------2--4----|--2-------------|----------|
--0-------------|-----------5----|--2-------------|-----5--2-------|----------|
--2-------------|----------------|----------------|----------------|----------|
--2-------------|----------------|----------------|----------------|----------|
--0-------------|--4-----4-------|--2-----2-------|----------------|----------|
--------x--x----|----------------|----------------|--2-----2-------|--2--2----|


----------------|--2-----4-------|----------|----------|--2--4--2-------|
--0-----2--5----|----------------|--2-------|----------|-----------5----|
----------------|----------------|----------|----------|----------------|
----------------|----------------|----------|----------|----------------|
--0-----0-------|--2-----2-------|--4--4----|--4--4----|--4-----4-------|
----------------|----------------|----------|----------|----------------|


--------2--4----|--2-------------|----------|----------------|--2-----4-------|
--2-------------|-----5--2-------|----------|--0-----2--5----|----------------|
----------------|----------------|----------|----------------|----------------|
----------------|----------------|----------|----------------|----------------|
--2-----2-------|----------------|----------|--0-----0-------|--2-----2-------|
----------------|--2-----2-------|--2--2----|----------------|----------------|


----------|----------|--7--------7L---|--7-------|--7--------7L---|--7-------|
--2-------|----------|--9--------9L---|--9-------|--10-------10L--|--10------|
----------|----------|--9--------9L---|--9-------|--9--------9L---|--9-------|
----------|----------|----------------|----------|----------------|----------|
--4--4----|--4--4----|----------------|----------|--0--------0----|----------|
----------|----------|--0-----x--0----|-----x----|--------x-------|-----x----|


--7--------7L---|--7-------|--7--------7L---|--7-------|--0-------------|
--9--------9L---|--9-------|--10-------10L--|--10------|----------------|
--9--------9L---|--9-------|--9--------9L---|--9-------|----------------|
----------------|----------|----------------|----------|----------------|
----------------|----------|--0--------0----|----------|----------------|
--0-----x--0----|-----x----|--------x-------|-----x----|--0-----x-------|


-----4----|--5-------------|-----11---|--12-------7----|-----4----|
----------|----------------|----------|----------------|----------|
----------|----------------|----------|----------------|----------|
----------|----------------|----------|----------------|----------|
----------|--0-------------|--0-------|----------------|----------|
--0--x----|--------x-------|-----x----|--0-----x-------|--0--x----|


--5-------------|----------|--0-------------|-----4----|--5-------------|
----------------|----------|----------------|----------|----------------|
----------------|----------|----------------|----------|----------------|
----------------|----------|----------------|----------|----------------|
--0-------------|--0-------|----------------|----------|--0-------------|
--------x-------|-----x----|--0-----x-------|--0--x----|--------x-------|


-----11---|--12-------7----|-----4----|--5--------16---|-----17---|
----------|----------------|----------|----------------|----------|
----------|----------------|----------|----------------|----------|
----------|----------------|----------|----------------|----------|
--0-------|----------------|----------|--0-------------|--0-------|
-----x----|--0-----x-------|--0--x----|--------x-------|-----x----|


--16-------12---|-----7----|--------7-------|--16-17---|--16-------12---|
----------------|----------|----------------|----------|----------------|
----------------|----------|----------------|----------|----------------|
----------------|----------|----------------|----------|----------------|
----------------|----------|--0-------------|--0-------|----------------|
--0-----x-------|--0--x----|--------x-------|-----x----|--0-----x-------|


----------|--------7-------|--16-17---|--16-------12---|-----7----|
----------|----------------|----------|----------------|----------|
----------|----------------|----------|----------------|----------|
----------|----------------|----------|----------------|----------|
----------|--0-------------|--0-------|----------------|----------|
--0--x----|--------x-------|-----x----|--0-----x-------|--0--x----|


--------7-------|--5--4----|--5--------7----|-----12---|-----------16---|
----------------|----------|----------------|----------|----------------|
----------------|----------|----------------|----------|----------------|
----------------|----------|----------------|----------|----------------|
--0-------------|--0-------|----------------|----------|--0-------------|
--------x-------|-----x----|--0-----x-------|--0--x----|--------x-------|


-----17---|--16-------12---|-----7----|--------7-------|--16-17---|
----------|----------------|----------|----------------|----------|
----------|----------------|----------|----------------|----------|
----------|----------------|----------|----------------|----------|
--0-------|----------------|----------|--0-------------|--0-------|
-----x----|--0-----x-------|--0--x----|--------x-------|-----x----|


--16-------12---|----------|--------7-------|--16-17---|--16-------12---|
----------------|----------|----------------|----------|----------------|
----------------|----------|----------------|----------|----------------|
----------------|----------|----------------|----------|----------------|
----------------|----------|--0-------------|--0-------|----------------|
--0-----x-------|--0--x----|--------x-------|-----x----|--0-----x-------|


-----7----|--------7-------|--5--4----|--5--------7----|-----12---|
----------|----------------|----------|----------------|----------|
----------|----------------|----------|----------------|----------|
----------|----------------|----------|----------------|----------|
----------|--0-------------|--0-------|----------------|----------|
--0--x----|--------x-------|-----x----|--0-----x-------|--0--x----|


--11------------|----------|--21-16-19-14---|--16-12-14------|--9-----7-------|
----------------|----------|----------------|-----------14---|-----9-----7----|
----------------|----------|----------------|----------------|----------------|
----------------|----------|----------------|----------------|----------------|
----------------|----------|--0--------0----|----------------|----------------|
--7-----x--7----|-----7----|----------------|----------------|--7--------7----|


----------------|----------------|----------------|-----2--0--4----|
--9-----7-------|--2-----0-------|----------------|--0-------------|
-----9-----6----|-----1----------|--1-------------|----------------|
----------------|-----------4----|-----2--4-------|----------------|
----------------|--4--------4----|-----------4----|--4--------4----|
----------------|----------------|----------------|----------------|


--2--7--4--9----|--21-16-19-14---|--16-12-14------|--9-----7-------|
----------------|----------------|-----------14---|-----9-----7----|
----------------|----------------|----------------|----------------|
----------------|----------------|----------------|----------------|
----------------|--0--------0----|----------------|----------------|
----------------|----------------|----------------|--7--------7----|


----------------|----------------|----------------|-------|----------|
--9-----7-------|--2-----0-------|----------------|-------|----------|
-----9-----6----|-----1----------|--1-------------|-------|----------|
----------------|-----------4----|-----2--4-------|-------|----------|
----------------|--4--------4----|-----------4----|--4----|----------|
----------------|----------------|----------------|--4----|-----x----|


--2--4--2-------|--------2--4----|--2-------------|----------|----------------|
-----------5----|--2-------------|-----5--2-------|----------|--0-----2--5----|
----------------|----------------|----------------|----------|----------------|
----------------|----------------|----------------|----------|----------------|
--4-----4-------|--2-----2-------|----------------|----------|--0-----0-------|
----------------|----------------|--2-----2-------|--2--2----|----------------|


--2-----4-------|----------|----------|--2--4--2-------|--------2--4----|
----------------|--2-------|----------|-----------5----|--2-------------|
----------------|----------|----------|----------------|----------------|
----------------|----------|----------|----------------|----------------|
--2-----2-------|--4--4----|--4--4----|--4-----4-------|--2-----2-------|
----------------|----------|----------|----------------|----------------|


--2-------------|----------|----------------|--2-----4-------|----------|
-----5--2-------|----------|--0-----2--5----|----------------|--2-------|
----------------|----------|----------------|----------------|----------|
----------------|----------|----------------|----------------|----------|
----------------|----------|--0-----0-------|--2-----2-------|--4--4----|
--2-----2-------|--2--2----|----------------|----------------|----------|


----------|----------------|--4-------|--------2-------|--0--------0----|
----------|----------------|----------|----------------|--------4-------|
----------|----------------|----------|----------------|----------------|
----------|----------------|----------|-----------2----|----------------|
--4--4----|-----------4----|----------|----------------|----------------|
----------|--2-----x-------|-----2----|--4-----x-------|--------x-------|


----------------|----------|----------------|----------------|----------------|
----------------|----------|--------4-------|--2-----0--4----|----------------|
----------------|----------|----------------|----------------|----------------|
----------------|----------|----------------|----------------|----------------|
--4--------4----|-----2----|--4--------4----|--------2-------|-----------4----|
--------x-------|----------|--------x-------|--------x-------|--2-----x-------|


----------|----------------|--0-----2--0----|----------------|----------|
----------|--------4-------|----------------|----------------|----------|
----------|----------------|----------------|----------------|----------|
----------|-----------2----|----------------|----------------|----------|
----------|----------------|----------------|--4--------4----|-----2----|
-----2----|--4-----x-------|--------x-------|--------x-------|----------|


----------------|-----2----|--4-------------|----------|--------2-------|
----------------|----------|----------------|----------|----------------|
----------------|----------|----------------|----------|----------------|
----------------|----------|----------------|----------|-----------2----|
--4--------4----|-----2----|-----------4----|----------|----------------|
--------x-------|-----x----|--2-----x-------|-----2----|--4-----x-------|


--0--------0----|----------------|----------|----------------|----------------|
--------4-------|----------------|----------|--------4-------|--2-----0--4----|
----------------|----------------|----------|----------------|----------------|
----------------|----------------|----------|----------------|----------------|
----------------|--4--------4----|-----2----|--4--------4----|--------2-------|
--------x-------|--------x-------|----------|--------x-------|--------x-------|


----------------|----------|----------------|--0-----2--0----|----------------|
----------------|----------|--------4-------|----------------|----------------|
----------------|----------|----------------|----------------|----------------|
----------------|----------|-----------2----|----------------|----------------|
-----------4----|----------|----------------|----------------|--4--------4----|
--2-----x-------|-----2----|--4-----x-------|--------x-------|--------x-------|


----------|----------------|---------||--7--------7L---|--7-------|
----------|----------------|---------||--9--------9L---|--9-------|
----------|----------------|--------o||--9--------9L---|--9-------|
----------|----------------|--------o||----------------|----------|
-----2----|--4--------4----|-----0---||----------------|----------|
----------|--------x-------|-----x---||--0-----x--0----|-----x----|


--7--------7L---|--7-------|--7--------7L---|--7-------|--7--------7L---|
--10-------10L--|--10------|--9--------9L---|--9-------|--10-------10L--|
--9--------9L---|--9-------|--9--------9L---|--9-------|--9--------9L---|
----------------|----------|----------------|----------|----------------|
--0--------0----|----------|----------------|----------|--0--------0----|
--------x-------|-----x----|--0-----x--0----|-----x----|--------x-------|


--7-------|--2--4--2-------|--------2--4----|--2-------------|----------|
--10------|-----------5----|--2-------------|-----5--2-------|----------|
--9-------|----------------|----------------|----------------|----------|
----------|----------------|----------------|----------------|----------|
----------|--4-----4-------|--2-----2-------|----------------|----------|
-----x----|----------------|----------------|--2-----2-------|--2--2----|


----------------|--2-----4-------|----------|----------|--2--4--2-------|
--0-----2--5----|----------------|--2-------|----------|-----------5----|
----------------|----------------|----------|----------|----------------|
----------------|----------------|----------|----------|----------------|
--0-----0-------|--2-----2-------|--4--4----|--4--4----|--4-----4-------|
----------------|----------------|----------|----------|----------------|


--------2--4----|--2-------------|----------|----------------|----------------|
--2-------------|-----5--2-------|----------|--0-----2--5----|--7-----9-------|
----------------|----------------|----------|----------------|----------------|
----------------|----------------|----------|----------------|----------------|
--2-----2-------|----------------|----------|--0-----0-------|----------------|
----------------|--2-----2-------|--2--2----|----------------|--7-----7-------|


--9-------------|--9----||
--9-------------|--9----||
----------------|-------||
----------------|-------||
----------------|-------||
--9-------------|--9----||
Login or Register to remove this ad.