Ads

Doomsday Zone (Sonic and Knuckles) Guitar Tab

Submitted: Apr 07, 2012 by Omnicide

5
Average: 5 (4 votes)
Download | Listen
Game: Sonic and Knuckles
Composer(s): Howard Drossin
Style: Arrangement, Fingerstyle, Trill
Series: Sonic the Hedgehog

AutoScroll: Slow | Medium | Fast
Doomsday Zone
Sonic & Knuckles
Composed by Howard Drossin
Arranged by William Geesdorf


DADGBD# Tuning


Note: In the trill part, play it this way: while the thumb do the rhythm (in the low D string), 
play that 2(B string) and slide it up to do the "10-11 repetitions". 
When it's over, slide down and continue to play the song.
Also, i changed the main melody a little for better positioning of hands.


      E  E  Q.     E  E  E     E  E  E  E  E  E  E  E     E  E  Q.     Q.      
D#||-----0------------------|--------------------------|-----0----------------|
B ||-----1--3---------------|--------------------------|-----1--3------2------|
G ||-----0--1---------------|--------------------------|-----0--1------0------|
D ||--------3---------------|--------------------------|--------3------2------|
A ||--3-----2------2--1--0--|-----------------0--1--2--|--3-----2------1------|
D ||------------------------|--6--5--4--5--6-----------|----------------------|


  E  E  E  E  E  E  E  E     E  E  E  E  E  E  E  E     E  E  E  E  E  E  Q     
--------------------------|--------6--------5--------|--4--------3--------2----|
--------------------------|-----7--------6--------5--|--------4--------3-------|
--------------------------|--8--------7--------6-----|-----5--------4----------|
--------------------------|--------------------------|-------------------------|
-----1--0-----------------|--6--------5--------4-----|-----3--------2----------|
-----------6--5--4--3--2--|--------------------------|-------------------------|


  ^                      ^                                                    
  3                      3                                                    
  W                E  E  E     W                     E  E  E  E  E  E  E  E   
--6----------------7--6--4--|--L----------------||---------------------------|
--6----------------------2--|--L----------------||---------------------------|
--7----------------------2--|--L----------------||*--------------------------|
--8----------------------2--|--L----------------||*--------------------------|
-------------------------0--|--L----------------||---8-----0-----1-----2-----|
--8-------------------------|-------------------||---0--0--0--0--0--0--0--0--|


  E  E  E  E  E  E  E  E     E  E  E  E  E  E  E  E   
--------------------------|--------------------------|
--------------------------|--------------------------|
--------------------------|--------------------------|
--------------------------|--------------------------|
--3-----4-----5-----6--7--|--8-----0-----1-----2-----|
--0--0--0--0--0--0--0--0--|--0--0--0--0--0--0--0--0--|


              tr    tr    tr    tr     
  E  E  E  E  E     E     E     E      
--------------------------------------|
--------------2(3)--4(5)--6(7)--8(9)--|
--------------------------------------|
--------------------------------------|
--3-----4-----------------------------|
--0--0--0--0--0-----0-----0-----0-----|


   tr      tr      tr      tr      tr      tr      tr      tr      
   E       E       E       E       E       E       E       E       
------------------------------------------------------------------|
--10(11)--10(11)--10(11)--10(11)--10(11)--10(11)--10(11)--10(11)--|
------------------------------------------------------------------|
------------------------------------------------------------------|
------------------------------------------------------------------|
---0-------0-------0-------0-------0-------0-------0-------0------|


   tr      tr      tr      tr      tr    tr    tr    tr                                
   E       E       E       E       E     E     E     E        E  E  E  E  E  E  E  E   
-----------------------------------------------------------|--------5--------4--------|
--10(11)--10(11)--10(11)--10(11)--10(9)--8(7)--6(5)--4(2)--|-----6--------5--------4--|
-----------------------------------------------------------|--7--------6--------5-----|
-----------------------------------------------------------|--------------------------|
-----------------------------------------------------------|--------------------------|
---0-------0-------0-------0-------0-----0-----0-----0-----|--0--0--0--0--0--0--0--0--|


  E  E  E  E  E  E  E  E     E   E  E  E  E  E  E  E     E  E  E  E  E  E  E  E   
--3--------2--------1-----|---------------------------|--------------------------|
--------3--------2--------|---------------------------|--------------------------|
-----4--------3--------2--|--9------7--------5--------|-----------------5--------|
--------------------------|--9---9--7--7-----5--5-----|-----------3--5--5--------|
--------------------------|-----10-----8--------7-----|-----------5--7-----------|
--0--0--0--0--0--0--0--0--|--0---0--0--0--0--0--0--0--|--0--0--0--0--0--0--0--0--|


  E   E  E  E  E  E  E  E     E  E  E  E  E  E  E  E     E  E  E  E  E  E  E  E   
---------------------------|--------------------------|--------------------0-----|
---------------------------|-----------------5--------|--3--------1--------1-----|
--9------7--------5--------|-----------------5--------|--3--------2--------------|
--9---9--7--7-----5--5-----|-----------3--5-----------|--------------------------|
-----10-----8--------7-----|-----------5--7-----------|--------------------------|
--0---0--0--0--0--0--0--0--|--0--0--0--0--0--0--0--0--|--1--1--1--1--1--1--1--1--|


  E  E  E  E  E  E  E  S  S    E  E  E  E  E  E  E  E     E  E  E  E  E  E  E  E   
--------------2--------1p-0-|--------5--------4--------|--3--------2--------1-----|
-----3--------3-------------|--3--6--------5--------4--|--------3--------2--------|
-----3--------2-------------|--2--------6--------5-----|-----4--------3--------2--|
----------------------------|--------------------------|--------------------------|
----------------------------|--------------------------|--------------------------|
--1--1--1--1--1--1--1--1----|--0--0--0--0--0--0--0--0--|--0--0--0--0--0--0--0--0--|


  E   E  E  E  E  E  E  E     E  E  E  E  E  E  E  E     E   E  E  E  E  E  E  E   
---------------------------|--------------------------|---------------------------|
---------------------------|--------------------------|---------------------------|
--9------7--------5--------|-----------------5--------|--9------7--------5--------|
--9---9--7--7-----5--5-----|-----------3--5--5--------|--9---9--7--7-----5--5-----|
-----10-----8--------7-----|-----------5--7-----------|-----10-----8--------7-----|
--0---0--0--0--0--0--0--0--|--0--0--0--0--0--0--0--0--|--0---0--0--0--0--0--0--0--|


  E  E  E  E  E  E  E  E     E  E  E  E  E  E  E  E     E  E  E  E  E  E  E  S  S  
--------------------------|--------------------0-----|--------------2--------1p-0-|
-----------------5--------|--3--------1--------1-----|-----3--------3-------------|
-----------------5--------|--3--------2--------------|-----3--------2-------------|
-----------3--5-----------|--------------------------|----------------------------|
-----------5--7-----------|--------------------------|----------------------------|
--0--0--0--0--0--0--0--0--|--1--1--1--1--1--1--1--1--|--1--1--1--1--1--1--1--1----|


  E  E  E  E  E  E  E  E     E  E  E  E  E  E  E  E     E  E  E  E  E  E  E  E   
--------5--------4--------|--3--------2--------1-----|-----------6-----4--3-----|
--3--6--------5--------4--|--------3--------2--------|-----3--6--------------6--|
--2--------6--------5-----|-----4--------3--------2--|--3--3--3--3--3-----3--4--|
--------------------------|--------------------------|-----------------3--------|
--------------------------|--------------------------|--------------------------|
--0--0--0--0--0--0--0--0--|--0--0--0--0--0--0--0-----|--------------------------|


  E  E  E  E  E  E  E  E     E  E  E  E  E  E  E  E     E  E  E  E  E  E  E  E   
--------------------------|--------3--7-----6--5--4--|--------------------------|
--------------------------|-----4--------------------|--------------------------|
-----4--4--4--4-----4--5--|--------------------------|-----------------------7--|
-----------------4--------|-----------------4--------|-----------------5--------|
-----------------------3--|-----3--3--3--3-----3--4--|-----4--4--4--4-----4--5--|
--------------------------|--------------------------|--------------------------|


  E  E  E  E  E  E  E  E     E  E  E  E  E  E  E  E     E  E  E   E  E   E   E   E   
--------5--9-----8--7--6--|--------------------------|--------7--11-----10--11--13--|
-----6--------------------|--------------------------|-----8--------------------14--|
--------------------------|-----------------------9--|--------------------------14--|
-----------------6--------|-----------------7--------|-------------------8----------|
-----5--5--5--5-----5--6--|-----6--6--6--6-----6--7--|-----7--7---7--7-------7---0--|
--------------------------|--------------------------|------------------------------|

                                                      1st Ending
  E  E  E  E  E  E  E  E     E  E  E  E  E  E  E  E     E  E  E  E  E  E  E  E   
--------------------------|--------------------------|--------------------------|
--------3-----3-----3--2--|-----2--2-----2-----2--3--|-----3--3-----3-----3--2--|
--------2-----2-----2--2--|-----2--2-----2-----2--2--|-----2--2-----2-----2--2--|
--------2-----2-----2--2--|-----2--2-----2-----2--2--|-----2--2-----2-----2--2--|
-----0--0--0--0-----0--0--|--0--0--0--0--0-----0--0--|--0--0--0--0--0-----0--0--|
-----------------2--------|-----------------2--------|-----------------2--------|

                             2nd Ending
  E  E  E  E  E  E  E  E       E  E  E  E  E  E  E  E     E  E  E  E  E  E  E  E   
---------------------------||--------------------------|--------------------------|
-----2--2-----2-----2------||-----3--3-----3-----3--2--|-----2--2-----2-----2-----|
-----2--2-----2-----2-----*||-----2--2-----2-----2--2--|-----2--2-----2-----2-----|
-----2--2-----2-----2-----*||-----2--2-----2-----2--2--|-----2--2-----2-----2-----|
--0--0--0--0--0-----0--0---||--0--0--0--0--0-----0--0--|--0--0--0--0--0-----0--0--|
-----------------2---------||-----------------2--------|-----------------2--------|


  ^                                                                    
  Q    E  E  Q    E  E     Q    Q    Q    Q       Q    E  H        E   
------------------------|----------------------|----------------------|
------------------------|----------------------|----------------------|
---------------------0--|----------------------|-------0--------------|
--0----0--0--0----2-----|-------4----2----0----|--3-------0-----------|
--0---------------------|----------------------|--1-------------------|
--0---------------------|----------------------|----------------------|


                       ^                                      
  H.           Q       W                   W                  
--------------------|-------------------|-------------------||
--------------------|--3----------------|--L----------------||
---------------0----|--2----------------|--L----------------||
--2------------2----|--4----------------|--L----------------||
--3-----------------|--0----------------|--L----------------||
--------------------|--0----------------|--L----------------||




Duration Legend
---------------
W - whole
H - half
Q - quarter
E - 8th
S - 16th
T - 32nd
X - 64th
. - note dotted
|-n-|  - n-tuplets


Tablature Legend
----------------
L - tied note
p - pull off
tr - trill
^ - brush up
Login or Register to remove this ad.

2 comments on Doomsday Zone

Good job, seems like this one

Good job, seems like this one was a pain to arrange.

Really good job

5

I can't put into words how awesome this sounds, I really look forward to learning this! Thanks so much for the tabs.