Ads

Tikal's Theme (Sonic Adventure) Guitar Tab

Submitted: Sep 08, 2011 by Cherucha

4
Average: 4 (1 vote)
Download | Listen
Game: Sonic Adventure
Composer(s): Jun Senoue
Style: Transcription
Series: Sonic the Hedgehog

AutoScroll: Slow | Medium | Fast
 Tikal's Theme
~Sonic Adventure~
Composed by Jun Senoue, Kenichi Tokoi, Fumie Kumatani

  
  Intro 
E|-3-1-3---3-1-3---------
B|-------3-------3-------
G|-----------------------
D|-----------------------
A|-----------------------
E|----------------------- x3


E|-----------3-1-----------------
B|---3-1-3-------3-4-3-1---1-----
G|-0-------3-------------3---2---
D|-------------------------------
A|-------------------------------
E|-------------------------------

E|-----------------3-1------------
B|---1-3---3-1---------3-4-3-1----
G|-3-----0-----2-3----------------
D|--------------------------------
A|--------------------------------
E|--------------------------------

E|-------------------1-3-5-3------
B|---1---3-1-3-1-3-4---------1----
G|-3---0--------------------------
D|--------------------------------
A|--------------------------------
E|--------------------------------

E|-3-1-------------3-1------------
B|---------3-3---------3-4-3-1----
G|-----3-0-----2-3----------------
D|--------------------------------
A|--------------------------------
E|--------------------------------

E|---------------------3-1--------
B|---1-----1-3---3-3--------------
G|-3---2-3-----0-----3------------
D|--------------------------------
A|--------------------------------
E|--------------------------------

E|--------------------------------
B|-3-4-3-1---1---3-1-3-1-3-4------
G|---------3---0------------------
D|--------------------------------
A|--------------------------------
E|--------------------------------

E|-1-3-5-3--3-5-------------------
B|---------1----------------------
G|--------------------------------
D|--------------------------------
A|--------------------------------
E|--------------------------------

E|---------3-3-1------------------
B|---3-1-3-------1-4-3------------
G|-0-------------------0----------
D|-----------------------3--------
A|--------------------------------
E|--------------------------------

E|----------------------------3---
B|---3-1-----------1-3--3-1-3-----
G|-0-----0---0-0-3-----0----------
D|---------3----------------------
A|--------------------------------
E|--------------------------------

E|-3-1----------------------------
B|-----1-4-3-------3-1------------
G|-----------0---0-----0---0-0----
D|-------------3---------3--------
A|--------------------------------
E|--------------------------------

E|-------3-1----------------------
B|---1-3-----3-1---1-3---1-3------
G|-3-------------3-----0-----0----
D|--------------------------------
A|--------------------------------
E|--------------------------------

E|---------------------3-1--------
B|-3-1---1-3---3-1---1-----3------
G|-----------0--------------------
D|-----3-----------3--------------
A|--------------------------------
E|--------------------------------

E|--------------------------------
B|-1---1-3---1-3---3-1---1-3---3-1
G|---3-----0-----0-----------0----
D|---------------------3----------
A|--------------------------------
E|--------------------------------

E|-----------1-------------1------
B|-------1-3-----------1-3--------
G|-0-2-3---------0-2-3------------
D|--------------------------------
A|--------------------------------
E|-------------------------------- x2


E|---------3-3-1------------------
B|---3-1-3-------1-4-3------------
G|-0-------------------0----------
D|-----------------------3--------
A|--------------------------------
E|--------------------------------

E|----------------------------3---
B|---3-1-----------1-3--3-1-3-----
G|-0-----0---0-0-3-----0----------
D|---------3----------------------
A|--------------------------------
E|--------------------------------

E|-3-1----------------------------
B|-----1-4-3-------3-1------------
G|-----------0---0-----0---0-0----
D|-------------3---------3--------
A|--------------------------------
E|--------------------------------

E|---------------4-3-1------------
B|---1-3---3-1-3-------1-4-3------
G|-3-----0-------------------0----
D|-----------------------------3--
A|--------------------------------
E|--------------------------------

E|----------------------------4---
B|---3-1-----------1-3--3-1-3-----
G|-0-----0---0-0-3-----0----------
D|---------3----------------------
A|--------------------------------
E|--------------------------------

E|-3-1------------------------------
B|-----1-4-3-------3-1-----------1-3
G|-----------0---0-----0---0-0-3----
D|-------------3---------3----------
A|----------------------------------
E|----------------------------------

Login or Register to remove this ad.