Ads

Open Your Heart (Sonic Adventure) Guitar Tab

Submitted: Jun 02, 2013 by Lemoncobbler

5
Average: 5 (2 votes)
Download | Listen
Game: Sonic Adventure
Composer(s): Jun Senoue
Style: Arrangement, Fingerstyle
Series: Sonic the Hedgehog

AutoScroll: Slow | Medium | Fast
                                Open Your Heart                                 


Sonic Adventure
Written by Crush 40
Arranged by Lemoncobbler
6/1/2013



     E  E  E  E  E  E  E  E     E  E  E  E  E  E  Q     
E||--------0-----------------|-------------------------|
B||--------------3--1-----3--|-----4--3-----3----------|
G||--------2-----2--0-----2--|-----------5-----5-------|
D||--------------------------|--0----------------------|
A||--0--0-----0-----3--0-----|-------------------------|
E||--------------------------|--------------------3----|


  E  E  E  E  E  E  E  E     E  E  E  E  E  E  Q       E  E  E  E  E  E  E  E   
--------0-----------------|--------------------5----|--------0-----------------|
--------------3--1-----3--|-----4--3-----3----------|--------------3--1-----3--|
--------2-----2--0-----2--|-----------5-----5-------|--------2-----2--0-----2--|
--------------------------|--0----------------------|--------------------------|
--0--0-----0-----3--0-----|-------------------------|--0--0-----0-----3--0-----|
--------------------------|-------------------------|--------------------------|


                                                ^                            
  E  E  E  E  E  E  E  E     E  E  Q.     E  E  E     E  E  E  E  Q    Q     
--------------------------|------------------------|------------------------|
-----4--3-----3-----------|--------1---------1--4--|--L---------------------|
-----------5-----5--------|--------2------2--2--3--|--L---------------------|
--0-----------------------|---------------2-----1--|--L--1--1--1--1---------|
--------------------------|--0--0--3---------------|------------------------|
--------------------3--3--|------------------------|-------------------3----|


  E  E  E  E  E  E  E  E     E  E  E  E  E  E  Q       E  E  E  E  E  E  E  E   
--------0-----0-----------|-------------------------|--------0-----0-----------|
--------1-----1-----------|--3-----3--3-----1-------|--------1-----1-----------|
--------2-----2-----------|--2-----2--2-----0-------|--------2-----2-----------|
--------------------------|-----------------0-------|--------------------------|
--0--0-----0-----3--0--0--|-----0--------0----------|--0--0-----0-----3--0--0--|
--------------------------|--------------------3----|--------------------------|


  E  E  E  E  E  E  Q       E  E  E  E  E  E  E  E     E  E  E  E  E  E  E  E   
-------------------------|--------0-----0-----------|--------------------------|
--3-----3--3-----1-------|--------1-----1-----------|--3-----3--3-----1--------|
--2-----2--2-----0-------|--------2-----2-----------|--2-----2--2-----0--------|
-----------------0-------|--------------------------|-----------------0--------|
-----0--------0----------|--0--0-----0-----3--0--0--|-----0--------0-----4--3--|
--------------------3----|--------------------------|--------------------------|


                            ^                                              
  E  E  E  E  E  E  Q       H        Q    Q       E  E  E  E  E  E  E  E   
--------0-----0-----0----|--0------------------|--------0-----0-----------|
--------1-----1-----1----|--3--------1---------|--------1-----1-----------|
-------------------------|--2--------0---------|--------2-----2-----------|
-------------------------|--0--------0---------|--------------------------|
--3--3-----3-----0-------|---------------------|--0--0-----0-----3--0--0--|
-------------------------|----------------3----|--------------------------|


  E  E  E  E  E  E  Q       E  E  E  E  E  E  E  E     E  E  E  E  E  E  Q     
-------------------------|--------0-----0-----------|-------------------------|
--3-----3--3-----1-------|--------1-----1-----------|--3-----3--3-----1-------|
--2-----2--2-----0-------|--------2-----2-----------|--2-----2--2-----0-------|
-----------------0-------|--------------------------|-----------------0-------|
-----0--------0----------|--0--0-----0-----3--0--0--|-----0--------0----------|
--------------------3----|--------------------------|--------------------3----|


                                                              ^            ^   
  E  E  E  E  E  E  E  E     E  E  E  E  E  E  E  E     E  E  Q    E  Q    E   
--------0-----0-----------|--------------------------|--------0----0--3----5--|
--------1-----1-----------|--3-----3--3-----1--------|--------1----1-------3--|
--------2-----2-----------|--2-----2--2-----0--------|--------0------------2--|
--------------------------|-----------------0--------|--------2------------0--|
--0--0-----0-----3--0--0--|-----0--------0-----4--3--|--3--3--3---------------|
--------------------------|--------------------------|------------------------|


       ^                                      ^                              
  Q    Q    E  E  Q       E  E  E  E  E  Q    E     E  E  E  E  E  E  E  E   
--L----0---------------|----------------------0--|--L--0-----0--------------|
--L----3----3--1-------|-----------------1----1--|--L-----------3--1--1-----|
--L----2---------------|--------2--2--2-------2--|--L-----------------------|
--L----0---------------|--------3----------------|--------------------------|
-----------------------|-------------------------|--------------------------|
------------------0----|--1--1----------------1--|--L-----1--------------0--|


  ^                                                                ^   
  H        H           E  Q    Q    E  E  E     E  E  Q    E  Q    E   
--------------------|------------------------|---------------------0--|
--3--------0--------|------------------------|----------------1----1--|
--0--------0--------|--2--0----0-------------|--------2----2-------2--|
--0--------0--------|--0---------------------|--------3---------------|
--------------------|---------------3--2--0--|------------------------|
--3-----------------|--3---------------------|--1--1---------------1--|


                            ^                                              
  E  E  E  E  E  E  Q       Q    E  Q    Q    E     E  E  E  Q    E  Q     
--L--0-----0-------------|-------5--5---------4--|--L--0--0-------0-------|
--L-----------3--1--1----|--3--------------------|-----------3------------|
--L----------------------|--0--------------------|------------------------|
-------------------------|--0--------------------|------------------------|
-------------------------|-----------------------|-------------------0----|
--L-----1----------------|--3------------0----0--|--L---------------------|


                                                    ^                 ^   
  E  E  Q    E  Q    E     E  Q    E  E  E  Q       E  Q    Q    Q    E   
--------5----5--5----5--|--L---------------------|-----0-----------------|
------------------------|-----5----5--3--1-------|--3-------3----1----0--|
---------------------5--|--L---------------------|--0-----------------0--|
--3--3---------------3--|--L---------------------|--0-----------------0--|
------------------------|-------------------3----|-----------------------|
------------------------|------------------------|--3-----------------3--|


  E  Q    E  Q    E  E     E  E  Q    E  Q    E     E  Q    E  E  E  Q     
------------------------|--------5----5--5----5--|--L---------------------|
--L--0----1--0----------|------------------------|-----5----5--3--1-------|
--L---------------0-----|---------------------5--|--L---------------------|
--L---------------------|--3--3---------------3--|--L----------------0----|
---------------------0--|------------------------|------------------------|
--L---------------------|------------------------|------------------------|


  ^                                                                     
  Q    E  Q    Q    E     Q    E  Q    E  Q       Q    Q    Q    E  E   
-------0-------0----4--|--L----0-------0--L----|-----------------------|
--3----3--3----3----5--|--L-------3------------|-----------------------|
--0-------0------------|-----------------------|-----------------------|
--0--------------------|-----------------------|-----------------------|
-----------------------|-----------------------|-----------------------|
--3-----------------0--|--L--------------------|--0----L----0----0--0--|


                                                  ^                       ^   
  E  E  E  E  E  E  E  E     E  E  E  E  E  E  E  E     Q    Q    E  Q    E   
--------------------------|--0-----------------------|-------0----3--0----5--|
--------------1-----------|--1-----------3--------1--|--L---------3-------3--|
--------2-----2-----------|--2-----------2--------0--|--L----2------------2--|
--------2--------2--------|-----------------------0--|--L-----------------0--|
--0--0-----0--------0--0--|-----0--0--0-----0--------|-----------------------|
--------------------------|--------------------3--2--|--L--------------------|


                                                                           ^   
  E  E  E  E  Q    Q       E  E  E  E  E  E  E  E     E  E  E  E  E  E  E  E   
--L--5--3--0--5---------|--------------------------|--0-----------------------|
--L---------------------|--------------1-----1--1--|--1-----------3--------1--|
--L---------------------|--------2-----2-----------|--2-----------2--------0--|
--L---------------------|--------2--------2--------|-----------------------0--|
------------------------|--0--0-----0--------0--0--|-----0--0--0-----0--------|
--------0----------3----|--------------------------|--------------------3--2--|


                    ^                                                       
  Q    Q    E  Q    E     E  E  E  E  Q    Q       E  E  E  E  E  E  E  E   
-------0----3--0----5--|--L--5--3--0--5---------|--------------------------|
--L---------3-------3--|--L---------------------|--------------1-----------|
--L----2------------2--|--L---------------------|--------2-----2-----------|
--L-----------------0--|--L---------------------|--------2--------2--------|
-----------------------|------------------------|--0--0-----0--------0--0--|
--L--------------------|--------0----------3----|--------------------------|


  ^                    ^                       ^                            
  E  E  E  E  E  E  E  E     Q    Q    E  Q    E     E  E  E  E  Q    Q     
--0--0--------------------|-------0----3--0----5--|--L--5--3--0--5----0----|
--1-----------3--3-----1--|--L---------3-------3--|--L---------------------|
--2-----------2--------0--|--L----2------------2--|--L---------------------|
--2--------------------0--|--L-----------------0--|--L---------------------|
--0-----0--0--0--0--------|-----------------------|------------------------|
--------------------3--2--|--L--------------------|--------0----------3----|


                                                  ^                       ^   
  E  E  E  E  E  E  E  E     E  E  E  E  E  E  E  E     Q    Q    E  Q    E   
--------------------------|--0-----0-----------------|-------0----3--0----5--|
--------------1-----------|--1--------3-----3-----1--|--L---------3-------3--|
--------2-----2-----------|--2--------2-----------0--|--L----2------------2--|
--------2--------2--------|-----------------------0--|--L-----------------0--|
--0--0-----0--------0--0--|-----0--0--0--0--0--------|-----------------------|
--------------------------|--------------------3--2--|--L--------------------|


  E  E  E  E  Q    Q       Q    Q    E  E  E  E     Q    E  E  E  Q.      
--L--5--3--0--5---------|--5----3----0-----------|----------------0------|
--L---------------------|---------------1-----3--|--L----3--1--3---------|
--L---------------------|---------------------0--|--L--------------------|
--L---------------------|---------------------0--|--L--------------------|
------------------------|------------------------|-----------------------|
--------0----------0----|--1---------------0--3--|--L--------------------|


  ^                                                                             
  E  E  E  E  E  E  E  E     E  E  E  E  E  E  Q       E  E  E  E  E  E  E  E   
--------0-----------------|-------------------------|--------0-----------------|
--------------3--1-----3--|-----4--3-----3----------|--------------3--1-----3--|
--2-----2-----2--0-----2--|-----------5-----5-------|--------2-----2--0-----2--|
--2-----------------------|--0----------------------|--------------------------|
--0--0-----0-----3--0-----|-------------------------|--0--0-----0-----3--0-----|
--------------------------|--------------------3----|--------------------------|


  E  E  E  E  E  E  Q       E  E  E  E  E  E  E  E     E  E  E  E  E  E  E  E   
--------------------5----|--------0-----------------|--------------------------|
-----4--3-----3----------|--------------3--1-----3--|-----4--3-----3-----------|
-----------5-----5-------|--------2-----2--0-----2--|-----------5-----5--------|
--0----------------------|--------------------------|--0-----------------------|
-------------------------|--0--0-----0-----3--0-----|--------------------------|
-------------------------|--------------------------|--------------------3--3--|


  E  E  E  E  E  Q    E     E  Q    Q    E  E  E     E  E  E  E  E  E  E  E   
--------0----------------|----------0-------------|--------0-----0-----------|
--------------3--1----3--|--L--4----0-------------|--------1-----1-----------|
--------2-----2--0----2--|-----3------------------|--------2-----2-----------|
-------------------------|------------------------|--------------------------|
--0--0-----0-----3-------|---------------------0--|--0--0-----0-----3--0--0--|
-------------------------|---------------2--3-----|--------------------------|


  E  E  E  E  E  E  Q       E  E  E  E  E  E  E  E     E  E  E  E  E  E  Q     
-------------------------|--------0-----0-----------|-------------------------|
--3-----3--3-----1-------|--------1-----1-----------|--3-----3--3-----1-------|
--2-----2--2-----0-------|--------2-----2-----------|--2-----2--2-----0-------|
-----------------0-------|--------------------------|-----------------0-------|
-----0--------0----------|--0--0-----0-----3--0--0--|-----0--------0----------|
--------------------3----|--------------------------|--------------------3----|


  E  E  E  E  E  E  E  E     E  E  E  E  E  E  E  E     E  E  E  E  E  E  Q     
--------0-----0-----------|--------------------------|--------0-----0-----0----|
--------1-----1-----------|--3-----3--3-----1--------|--------1-----1-----1----|
--------2-----2-----------|--2-----2--2-----0--------|-------------------------|
--------------------------|-----------------0--------|-------------------------|
--0--0-----0-----3--0--0--|-----0--------0-----4--3--|--3--3-----3-----0-------|
--------------------------|--------------------------|-------------------------|


  ^                                                                        
  H        Q    Q       E  E  E  E  E  E  E  E     E  E  E  E  E  E  Q     
--0------------------|--------0-----0-----------|-------------------------|
--3--------1---------|--------1-----1-----------|--3-----3--3-----1-------|
--2--------0---------|--------2-----2-----------|--2-----2--2-----0-------|
--0--------0---------|--------------------------|-----------------0-------|
---------------------|--0--0-----0-----3--0--0--|-----0--------0----------|
----------------3----|--------------------------|--------------------3----|


  E  E  E  E  E  E  E  E     E  E  E  E  E  E  Q       E  E  E  E  E  E  E  E   
--------0-----0-----------|-------------------------|--------0-----0-----------|
--------1-----1-----------|--3-----3--3-----1-------|--------1-----1-----------|
--------2-----2-----------|--2-----2--2-----0-------|--------2-----2-----------|
--------------------------|-----------------0-------|--------------------------|
--0--0-----0-----3--0--0--|-----0--------0----------|--0--0-----0-----3--0--0--|
--------------------------|--------------------3----|--------------------------|


                                   ^            ^          ^                
  E  E  E  E  E  E  E  E     E  E  Q    E  Q    E     Q    Q    E  E  Q     
--------------------------|--------0----0--3----5--|--L----0---------------|
--3-----3--3-----1--------|--------1----1-------3--|--L----3----3--1-------|
--2-----2--2-----0--------|--------0------------2--|--L----2---------------|
-----------------0--------|--------2------------0--|--L----0---------------|
-----0--------0-----4--3--|--3--3--3---------------|-----------------------|
--------------------------|------------------------|------------------0----|


                     ^                               ^                  
  E  E  Q    E  Q    E     E  E  E  E  Q    E  E     H        H         
---------------------0--|--L--0--0--0-------------|--------------------|
----------------1----1--|--L-----------3----1-----|--3--------0--------|
--------2----2-------2--|--L----------------------|--0--------0--------|
--------3------------3--|-------------------------|--0--------0--------|
------------------------|-------------------------|--------------------|
--1--1---------------1--|--L-------------------0--|--3-----------------|


                                          ^                            
  H        H           E  E  E  Q    Q    E     E  Q    E  Q    E  E   
--3--------5--------|---------------------0--|--L--0----0-------------|
--3--------5--------|-----------1----1----1--|--L----------3----1-----|
--4-----------------|--2-----2------------2--|--L---------------------|
--------------------|--3---------------------|------------------------|
--------------------|------------------------|------------------------|
--------------------|--1--1---------------1--|--L------------------0--|


  ^                                                                  
  Q    E  Q    Q    E     Q    E  Q    E  Q       H        H         
-------0-------0----4--|--L----0-------0--L----|--5--------7--------|
--3----3--3----3----5--|--L-------3------------|--------------------|
--0-------0------------|-----------------------|--5-----------------|
--0--------------------|-----------------------|--3-----------------|
-----------------------|-----------------------|--------------------|
--3-----------------0--|--L--------------------|--------------------|


  Q    E  Q    Q.        Q    E  Q    Q    E     E  Q    E  Q    Q     
--8----7--5-----------|---------------0-------|-------------0---------|
----------------------|--3----1--3---------1--|--L--1----3------------|
----------------------|--0-----------------0--|--L--------------------|
----------------------|--0-----------------0--|--L--------------------|
--8------------0------|-----------------------|------------------3----|
----------------------|--3-----------------3--|-----------------------|


  H        H           Q    E  Q    Q.        Q    E  Q    E  E  E   
--5--------7--------|--8----7--5----0------|---------------3--3--4--|
--------------------|--5-------------------|--3----1--3----------5--|
--5--------7--------|----------------------|--0---------------------|
--3-----------------|----------------------|--0---------------------|
--------------------|--8------------0------|------------------------|
--------------------|----------------------|--3------------------0--|


                                                                   ^   
  Q    E  Q    E  Q       Q    Q    Q    E  E     H        Q    E  E   
--L----0-------0-------|-----------------------|--0-------------------|
----------3------------|------------1----1--1--|--1--------3-------1--|
-----------------------|-------2----2----------|--2--------2-------0--|
-----------------------|-------2---------------|-------------------0--|
-----------------------|--0--------------------|----------------------|
------------------3----|-----------------------|----------------3--2--|


                    ^                                                 
  Q    Q    E  Q    E     E  E  E  E  H           Q    Q    H         
-------0----3--0----5--|--L--5--3--0--5--------|---------------------|
--L---------3-------3--|--L--------------------|------------1--------|
--L----2------------2--|--L--------------------|-------2----2--------|
--L-----------------0--|--L--------------------|-------2-------------|
-----------------------|-----------------------|--0------------------|
--L--------------------|-----------------------|---------------------|


  ^                  ^                       ^                            
  Q    E  Q    E  E  E     Q    Q    E  Q    E     E  E  E  E  Q    Q     
--0----0----------------|-------0----3--0----5--|--L--5--3--0--5---------|
--1-------3----3-----1--|--L---------3-------3--|--L---------------------|
--2-------2----------0--|--L----2------------2--|--L---------------------|
--2------------------0--|--L-----------------0--|--L---------------------|
--0---------------------|-----------------------|------------------------|
------------------3--2--|--L--------------------|-------------------3----|


  Q    Q    E  Q    E     E  E  E  E  Q    Q       E  E  E  E  E  E  E  E   
--5----3----0----------|-----------0------------|--------------------------|
--6------------1----3--|--L--------3------------|--------------1-----------|
--5-----------------0--|--L--------0------------|--------2-----2-----------|
--------------------0--|--L---------------------|--------2-----------------|
--3--------------------|------------------------|--0--0--0--0--0--0--0--0--|
---------------1----3--|--L--3--3--3--3----3----|--------------------------|


  ^                    ^          ^            ^                            
  E  E  E  E  E  E  E  E     Q    Q    E  Q    E     E  E  E  E  Q    Q     
--0-----------------------|-------0----3--0----5--|--L--5--3--0--5---------|
--1-----------3--------1--|--L----3----3-------3--|--L---------------------|
--2-----------2--------0--|--L----2------------2--|--L---------------------|
--2--------------------0--|--L----0------------0--|--L---------------------|
--0--0--0--0--0--0--------|-----------------------|------------------------|
--------------------3--2--|-----------------------|-------------------3----|


                                                  ^                       ^   
  E  E  E  E  E  E  E  E     E  E  E  E  E  E  E  E     Q    Q    E  Q    E   
--------------------------|--0-----------------------|-------0----3--0----5--|
--------------1-----1--1--|--1-----------3--------1--|--L---------3-------3--|
--------2-----2-----------|--2-----------2--------0--|--L----2------------2--|
--------2-----------------|-----------------------0--|--L----0----0-------0--|
--0--0--0--0--0--0--0--0--|--0--0--0--0--0--0--------|-----------------------|
--------------------------|--------------------3--2--|--L--------------------|


                                                      ^                    ^   
  E  E  E  E  Q    Q       E  E  E  E  E  E  E  E     E  E  E  E  E  E  E  E   
--L--5--3--0--5---------|--------------------------|--0--0--------------------|
--L---------------------|--------------1-----------|--1-----------3--3-----1--|
--L---------------------|--------2-----2-----------|--2-----------2--------0--|
--L---------------------|--------2-----2-----------|--2--------------------0--|
------------------------|--0--0--0--0--0--0--0--0--|--0-----0--0--0--0--------|
--------0----------3----|--------------------------|--------------------3--2--|


                    ^                                                       
  Q    Q    E  Q    E     E  E  E  E  Q    Q       E  E  E  E  E  E  E  E   
-------0----3--0----5--|--L--5--3--0--5----0----|--------------------------|
--L---------3-------3--|--L---------------------|--------------1-----------|
--L----2------------2--|--L---------------------|--------2-----2-----------|
--L----0----0-------0--|--L---------------------|--------2-----2-----------|
-----------------------|------------------------|--0--0--0--0--0--0--0--0--|
--L--------------------|--------0----------3----|--------------------------|


                       ^                       ^                            
  E  E  E  E  E  E  E  E     Q    Q    E  Q    E     E  E  E  E  Q    Q     
--0-----0-----------------|-------0----3--0----5--|--L--5--3--0--5---------|
--1--------3-----3-----1--|--L---------3-------3--|--L---------------------|
--2--------2-----------0--|--L----2------------2--|--L---------------------|
-----------------------0--|--L-----------------0--|--L---------------------|
--0--0--0--0--0--0--------|-----------------------|------------------------|
--------------------3--2--|--L--------------------|--------0----------0----|


                                                   ^                  
  Q    Q    E  E  E  E     Q    E  E  E  Q.        W.                 
--5----3----0-----------|----------------0------|-------------------||
---------------1-----3--|--L----3--1--3---------|-------------------||
---------------------0--|--L--------------------|--2----------------||
---------------------0--|--L--------------------|--2----------------||
------------------------|-----------------------|--0----------------||
--1---------------0--3--|--L--------------------|-------------------||




Duration Legend
---------------
W - whole
H - half
Q - quarter
E - 8th
S - 16th
T - 32nd
X - 64th
. - note dotted
|-n-|  - n-tuplets


Tablature Legend
----------------
L - tied note
x - dead note
g - grace note
(n) - ghost note
> - accentuded note
NH - natural harmonic
AH - artificial harmonic
TH - tapped harmonic
SH - semi harmonic
PH - pitch harmonic
h - hammer on
p - pull off
b - bend
br - bendRelease
pb - preBend
pbr - preBendRelease
brb - bendReleaseBend
\n/ - tremolo bar dip
\n - tremolo bar dive
-/n - tremolo bar Release up
/n\ - tremolo bar inverted dip
/n - tremolo bar return
-\n - tremolo bar Release down
S - shift slide
s - legato slide
/ -  slide into from below or out of upwards
\ -  slide into from above or out of downwards
~ - vibrato
W - wide vibrato
tr - trill
TP - tremolo picking
T - tapping
S - slap
P - pop
< - fade in
^ - brush up
v - brush down
Login or Register to remove this ad.

2 comments on Open Your Heart

Man... I'm getting so old

Man... I'm getting so old now. I can't believe how old this game is now.

Never played the game (only

5

Never played the game (only the sequel), but I love this song from it. Great arrangement, surprised there are no votes on it yet.