Ads

Mr. Unsmiley (Sonic Adventure 2) Guitar Tab

Submitted: Nov 12, 2009 by RexLeRouge (Last updated: Feb 06, 2010)

0
Download | Listen
Game: Sonic Adventure 2
Composer(s): Jun Senoue
Style: Alternate picking, Transcription
Series: Sonic the Hedgehog

AutoScroll: Slow | Medium | Fast
Mr Unsmiley                                   


Guitare
      E  S S E  Q    E  E  E        E  E  E  E  E  E  E  E   
E||----------------------------||---------------------------|
B||----------------------------||---------------------------|
G||*--7--7-7-7--5----5--5--5--*||*-----5-----5-----5-----5--|
D||*--7--7-7-7--5----5--5--5--*||*-----5-----5-----5-----5--|
A||---5--5-5-5--3----3--3--3---||------3-----3-----3-----3--|
E||----------------------------||---------------------------|


  E  S S E  Q    E  E  E     E  S S E  Q    E  E  E   
--------------------------|--------------------------|
--------------------------|--------------------------|
--7--7-7-7--5----5--5--5--|--7--7-7-7--5----5--5--5--|
--7--7-7-7--5----5--5--5--|--7--7-7-7--5----5--5--5--|
--5--5-5-5--3----3--3--3--|--5--5-5-5--3----3--3--3--|
--------------------------|--------------------------|


  E  E  E  E  E  E  E   E     E   E  E   E  E   E  E   E     
---------------------------|-------------------------------||
---------------------------|-------------------------------||
---------------------------|------------------------------*||
--5--6-----7-----8-----10--|-----10-----10-----10-----10--*||
--5--6-----7-----8-----10--|-----10-----10-----10-----10---||
--3--4-----5-----6------8--|------8------8------8------8---||


  E  E  E  Q    E  E  E     E  E  E  Q    E  Q    Q     
-------------------------|-----------------------------|
-------------------------|-----------------------------|
-------------------------|-------------------2----7----|
-------------------------|-------------------2----7----|
-----------3-------3--5--|-----------3-------0----5----|
--3--5----------5--------|--3--5----------5------------|


  E  E  E  Q    E  E  E     E  E  E  Q    E  Q    Q    Q     
-------------------------|----------------------------------|
-------------------------|----------------------------------|
-------------------------|-------------------8----7----5----|
-------------------------|-------------------8----7----5----|
-----------3-------3--5--|-----------3-------6----5----3----|
--3--5----------5--------|--3--5----------5-----------------|


  E  E  E  Q    E  E  E     E  E  E  Q    E  Q    Q     
-------------------------|-----------------------------|
-------------------------|-----------------------------|
-------------------------|-------------------2----7----|
-------------------------|-------------------2----7----|
-----------3-------3--5--|-----------3-------0----5----|
--3--5----------5--------|--3--5----------5------------|


  E  E  E  Q    E  E  E     E  E  E  Q    E  Q    Q    Q     
-------------------------|----------------------------------|
-------------------------|----------------------------------|
-------------------------|-------------------9----8----7----|
-------------------------|-------------------9----8----7----|
-----------3-------3--5--|-----------3-------7----6----5----|
--3--5----------5--------|--3--5----------5-----------------|


  Q    Q    Q    Q       E  S S S S Q    E  Q       E  S S S S Q    E  Q     
----------------------|--------------------------|--------------------------|
----------------------|--------------------------|--------------------------|
--6----5----4----3----|--2----------5----7--7----|--2----------8----7--7----|
--6----5----4----3----|--2----------5----7--7----|--2----------8----7--7----|
--4----3----2----1----|--0--0-0-0-0-3----5--5----|--0--0-0-0-0-6----5--5----|
----------------------|--------------------------|--------------------------|


  E  S S S S Q    E  Q       E  E  E  E  E  E  Q       E  S S S S Q    E  Q     
--------------------------|-------------------------|--------------------------|
--------------------------|-------------------------|--------------------------|
--2----------5----7--7----|-----8-----8-----8--8----|--2----------5----7--7----|
--2----------5----7--7----|-----8-----8-----8--8----|--2----------5----7--7----|
--0--0-0-0-0-3----5--5----|-----6-----6-----6--6----|--0--0-0-0-0-3----5--5----|
--------------------------|-------------------------|--------------------------|


  E  S S S S Q    E  Q       E  S S S S Q    E  Q     
--------------------------|--------------------------|
--------------------------|--------------------------|
--2----------8----7--7----|--2----------5----7--7----|
--2----------8----7--7----|--2----------5----7--7----|
--0--0-0-0-0-6----5--5----|--0--0-0-0-0-3----5--5----|
--------------------------|--------------------------|


   ...?                                                  
   E   E  E  E  E  E  E   E     E  S S S S Q    E  Q     
-----------------------------|--------------------------|
--10---8-----8---------------|--------------------------|
----------9-----9--7--9------|--2----------5----7--7----|
-------------------------10--|--2----------5----7--7----|
-----------------------------|--0--0-0-0-0-3----5--5----|
-----------------------------|--------------------------|


  E  S S S S Q    E  Q       E  S S S S Q    E  Q     
--------------------------|--------------------------|
--------------------------|--------------------------|
--2----------8----7--7----|--2----------5----7--7----|
--2----------8----7--7----|--2----------5----7--7----|
--0--0-0-0-0-6----5--5----|--0--0-0-0-0-3----5--5----|
--------------------------|--------------------------|


  ...?                                                       
  E     E  E  E  E  E  E  E     E   E  E  E   E  E   E  E    
-----------------------------|-----------------------------||
-------10--8-----8-----------|-----------------------------||
--9-----------9-----9--7--9--|--7------9--7------7---------||
-----------------------------|-----10--------10-----10--7--||
-----------------------------|-----------------------------||
-----------------------------|-----------------------------||




Duration Legend
---------------
W - whole
H - half
Q - quarter
E - 8th
S - 16th
T - 32nd
X - 64th
. - note dotted
|-n-|  - n-tuplets


Tablature Legend
----------------
L - tied note
x - dead note
g - grace note
(n) - ghost note
> - accentuded note
NH - natural harmonic
AH - artificial harmonic
TH - tapped harmonic
SH - semi harmonic
PH - pitch harmonic
h - hammer on
p - pull off
b - bend
br - bendRelease
pb - preBend
pbr - preBendRelease
brb - bendReleaseBend
\n/ - tremolo bar dip
\n - tremolo bar dive
-/n - tremolo bar Release up
/n\ - tremolo bar inverted dip
/n - tremolo bar return
-\n - tremolo bar Release down
S - shift slide
s - legato slide
/ -  slide into from below or out of upwards
\ -  slide into from above or out of downwards
~ - vibrato
W - wide vibrato
tr - trill
TP - tremolo picking
T - tapping
S - slap
P - pop
< - fade in
^ - brush up
v - brush down
Login or Register to remove this ad.