Ads

Highway in the sky (Sonic Adventure 2) Guitar Tab

Submitted: Nov 12, 2009 by RexLeRouge (Last updated: Feb 06, 2010)

5
Average: 5 (1 vote)
Download | Listen
Game: Sonic Adventure 2
Composer(s): Jun Senoue
Style: Alternate picking, Transcription
Series: Sonic the Hedgehog

AutoScroll: Slow | Medium | Fast
Highway in the sky                                


Guitare
      Q    E    Q    E   E  E     Q    E    Q    E  Q     
E||----------------------------|-------------------------|
B||----------------------------|-------------------------|
G||*---------------------------|-------------------------|
D||*------------------------8--|-------------------------|
A||--------7S--10----7--10-----|-------7S--10----5--7----|
E||---5------------------------|--5----------------------|


  Q    E    Q    E   E  E     E  E   Q    Q    Q     4x
---------------------------|-------------------------||
---------------------------|-------------------------||
---------------------------|------------------------*||
------------------------8--|--------10----9----8----*||
-------7S--10----7--10-----|--------10----9----8-----||
--5------------------------|--5--5---8----7----6-----||


  Q    E    Q    E   E  E     Q    E    Q    E   Q     
---------------------------|--------------------------|
---------------------------|--------------------------|
---------------------------|--------------------------|
------------------------8--|--------------------------|
-------7S--10----7--10-----|-------7S--10----5S--7----|
--5------------------------|--5-----------------------|


  Q    E    Q    E   E  E     E  E   Q    Q    Q       E  Q    E  Q    E  E   
---------------------------|------------------------|------------------------|
---------------------------|------------------------|------------------------|
---------------------------|------------------------|------------------------|
------------------------8--|--------10----9----5----|--8--7----5--7----8--7--|
-------7S--10----7--10-----|--------10----9----5----|--8--7----5--7----8--7--|
--5------------------------|--5--5---8----7----3----|--6--5----3--5----6--5--|


  E  E  S E  S E  E  S E  S    E  Q    E  Q    E  E   
----------------------------|------------------------|
----------------------------|------------------------|
----------------------------|------------------------|
----------------------------|--8--7----5--7----8--7--|
----------------------------|--8--7----5--7----8--7--|
--5--5--5-5--5-5--5--5-5--5-|--6--5----3--5----6--5--|


  E  E  S E  S E  E  Q       E  Q    E  Q    E  E   
--------------------------|------------------------|
--------------------------|------------------------|
--------------------------|------------------------|
--------------------------|--8--7----5--7----8--7--|
---------------5--7--8----|--8--7----5--7----8--7--|
--5--5--5-5--5-3--5--6----|--6--5----3--5----6--5--|


  E  E  S E  S E  E  S E  S    E  Q    E  Q    E  E     E  E   Q    Q    Q     
----------------------------|------------------------|------------------------|
----------------------------|------------------------|------------------------|
----------------------------|------------------------|------------------------|
----------------------------|--8--7----5--7----8--7--|-----7--10----9----8----|
----------------------------|--8--7----5--7----8--7--|-----7--10----9----8----|
--5--5--5-5--5-5--5--5-5--5-|--6--5----3--5----6--5--|-----5---8----7----6----|


   E  S S S S  S S S S S S  S S S S     E  S S S S  S S S S S S S S S S  
---------------------------12-L-L-L-|-----------------------------------|
--13--L-L-L-L-----------------------|--13--L-L-L-L----------------------|
--------------14-L-L-L-L-L----------|--------------12-L-L-L-L-L-L-L-L-L-|
---7--------------------------------|--10-------------------------------|
---7--------------------------------|--10-------------------------------|
---5--5-5-5-5--5-5-5-5-5-5--5-5-5-5-|---8--8-8-8-8--8-8-8-8-8-8-8-8-8-8-|


   E  S S S S  S S S S S S  S S S S     E  E  E  E  E  E   Q     
---------------------------10-L-L-L-|---------------------------|
--12--L-L-L-L-----------------------|--11--L--L--L--L--L---L----|
--------------11-L-L-L-L-L----------|---------------------------|
---9--------------------------------|---8--8-----8-----8--10----|
---9--------------------------------|---8--8-----8-----8--10----|
---7--7-7-7-7--7-7-7-7-7-7--7-7-7-7-|---6--6-----6-----6---8----|


   E  S S S S  S S S S S S  S S S S     E  S S S S  S S S S S S S S S S  
---------------------------12-L-L-L-|-----------------------------------|
--13--L-L-L-L-----------------------|--13--L-L-L-L----------------------|
--------------14-L-L-L-L-L----------|--------------12-L-L-L-L-L-L-L-L-L-|
---7--------------------------------|--10-------------------------------|
---7--------------------------------|--10-------------------------------|
---5--5-5-5-5--5-5-5-5-5-5--5-5-5-5-|---8--8-8-8-8--8-8-8-8-8-8-8-8-8-8-|


   E  S S S S  S S S S S S  S S S S     E  E  E  E  E  E   Q     
---------------------------10-L-L-L-|---------------------------|
--12--L-L-L-L-----------------------|--11--L--L--L--L--L---L----|
--------------11-L-L-L-L-L----------|---------------------------|
---9--------------------------------|------8-----8-----8--10----|
---9--------------------------------|------8-----8-----8--10----|
---7--7-7-7-7--7-7-7-7-7-7--7-7-7-7-|------6-----6-----6---8----|


   E  S S S S  S S S S S S  S S S S     E  S S S S  S S S S S S S S S S  
---------------------------12-L-L-L-|-----------------------------------|
--13--L-L-L-L-----------------------|--13--L-L-L-L----------------------|
--------------14-L-L-L-L-L----------|--------------12-L-L-L-L-L-L-L-L-L-|
---7--------------------------------|--10-------------------------------|
---7--------------------------------|--10-------------------------------|
---5--5-5-5-5--5-5-5-5-5-5--5-5-5-5-|---8--8-8-8-8--8-8-8-8-8-8-8-8-8-8-|


   E  S S S S  S S S S S S  S S S S     E  E  E  E  E  E   Q     
---------------------------10-L-L-L-|---------------------------|
--12--L-L-L-L-----------------------|--11--L--L--L--L--L---L----|
--------------11-L-L-L-L-L----------|---------------------------|
---9--------------------------------|---8--8-----8-----8--10----|
---9--------------------------------|---8--8-----8-----8--10----|
---7--7-7-7-7--7-7-7-7-7-7--7-7-7-7-|---6--6-----6-----6---8----|


   E  S S S S  S S S S S S  S S S S     E  S S S S  S S S S S S S S S S  
---------------------------12-L-L-L-|-----------------------------------|
--13--L-L-L-L-----------------------|--13--L-L-L-L----------------------|
--------------14-L-L-L-L-L----------|--------------12-L-L-L-L-L-L-L-L-L-|
---7--------------------------------|--10-------------------------------|
---7--------------------------------|--10-------------------------------|
---5--5-5-5-5--5-5-5-5-5-5--5-5-5-5-|---8--8-8-8-8--8-8-8-8-8-8-8-8-8-8-|


   E  S S S S  S S S S S S  S S S S     E  E  E  E   E  E   Q     
---------------------------10-L-L-L-|----------------------------|
--12--L-L-L-L-----------------------|--11--L--L--L--13--L---L----|
--------------11-L-L-L-L-L----------|----------------------------|
---9--------------------------------|------8-----8------8--10----|
---9--------------------------------|------8-----8------8--10----|
---7--7-7-7-7--7-7-7-7-7-7--7-7-7-7-|------6-----6------6---8----|


   E  Q    E  Q    E  E     E  E  S E  S E  Q.        E  Q    E  Q    E  E   
-------------------------|-------------------------|------------------------|
-------------------------|-------------------------|------------------------|
--14--L----L--L----L--L--|-------------------------|------------------------|
---8--7----5--7----8--7--|-------------------------|--8--7----5--7----8--7--|
---8--7----5--7----8--7--|---------------7--5------|--8--7----5--7----8--7--|
---6--5----3--5----6--5--|--5--5--5-5--5-5--3------|--6--5----3--5----6--5--|


  E  E  S E  S E   Q.        E  Q    E  Q    E  E     S S E  E  E  H         
--------------------------|------------------------|------------------------|
--------------------------|------------------------|------------------------|
--------------------------|------------------------|------------------------|
--------------------------|--8--7----5--7----8--7--|------5--7--8--L--------|
---------------7--10------|--8--7----5--7----8--7--|----5----7--8--L--------|
--5--5--5-5--5-5---8------|--6--5----3--5----6--5--|--3------5--6--L--------|


  E  Q    E  Q    E  E     Q     Q    Q     Q        Q     Q    Q    Q       
------------------------|------------------------|-------------------------||
------------------------|------------------------|-------------------------||
------------------------|------------------------|------------------------*||
--8--7----5--7----8--5--|--7----10----9----12----|--11----10----9----8----*||
--8--7----5--7----8--5--|--7----10----9----12----|--11----10----9----8-----||
--6--5----3--5----6--3--|--5-----8----7----10----|---9-----8----7----6-----||




Duration Legend
---------------
W - whole
H - half
Q - quarter
E - 8th
S - 16th
T - 32nd
X - 64th
. - note dotted
|-n-|  - n-tuplets


Tablature Legend
----------------
L - tied note
x - dead note
g - grace note
(n) - ghost note
> - accentuded note
NH - natural harmonic
AH - artificial harmonic
TH - tapped harmonic
SH - semi harmonic
PH - pitch harmonic
h - hammer on
p - pull off
b - bend
br - bendRelease
pb - preBend
pbr - preBendRelease
brb - bendReleaseBend
\n/ - tremolo bar dip
\n - tremolo bar dive
-/n - tremolo bar Release up
/n\ - tremolo bar inverted dip
/n - tremolo bar return
-\n - tremolo bar Release down
S - shift slide
s - legato slide
/ -  slide into from below or out of upwards
\ -  slide into from above or out of downwards
~ - vibrato
W - wide vibrato
tr - trill
TP - tremolo picking
T - tapping
S - slap
P - pop
< - fade in
^ - brush up
v - brush down
Login or Register to remove this ad.