Ads

Boss Theme 2 (Sonic 3D Blast) Guitar Tab

Submitted: Jan 08, 2014 by DjVinylBrony

0
Download | Listen
Game: Sonic 3D Blast
Composer(s): Jun Senoue
Style: Transcription
Series: Sonic the Hedgehog

AutoScroll: Slow | Medium | Fast
Sonic 3D Blast Boss Theme 2
As always Timing Might Be Off

Part 1

||-----------------------
||-----------------------
||-----------8---7-------
||10-----10---------9----
||----10---------------10
||-----------------------

||----------------------------------------------------------
||---------------------------------------------------13---12
||-----------8---7--8--10---8--10--12----13----14-----------
||10-----10-------------------------------------------------
||----10----------------------------------------------------
||----------------------------------------------------------

Part 2

||-----------------------
||-----------------------
||-----------8---7-------
||10-----10---------9----
||----10---------------10
||-----------------------

Pause for a sec before going on

||------------------------------------------------------10----------
||---------------------------------------------9-11-13-----13-11--12
||-----------8---7--8--10---8--10--12----12-------------------------
||10-----10---------------------------------------------------------
||----10------------------------------------------------------------
||------------------------------------------------------------------

This should be right but whatever is wrong tell me and i will fix it!
Enjoy!
Login or Register to remove this ad.