Ads

Sunset Rock (Snowboard Kids) Guitar Tab

Submitted: Oct 28, 2011 by StiGGe

5
Average: 5 (1 vote)
Download | Listen
Game: Snowboard Kids
Composer(s): Isao Kasai, Tomohiko Satou
Style: Transcription

AutoScroll: Slow | Medium | Fast
Part A

E|-----------------5---------------------------5--------|
B|-5-5-6-8---6-6-8-------------5-5-6-8---6-6-8----------|
G|---------5---------7-5-4-5-7---------5---------7-5-4--|
D|------------------------------------------------------|
A|------------------------------------------------------|
E|------------------------------------------------------|

Part B

E|---------------------------------------------|
B|-----5---5---5-------------5-6-6-5-6---------|
G|-5-7---4---4---7-7-5-4-5-7-----------7-5-4---|
D|---------------------------------------------|
A|---------------------------------------------|
E|---------------------------------------------|

Part C

E|-----------------------------------5-8-7--------|
B|-----5---5---5-------------5-6-6-8-------8-6----|
G|-5-7---4---4---7-7-5-4-5-7-------------------7--|
D|------------------------------------------------|
A|------------------------------------------------|
E|------------------------------------------------|

Part D

E|-----10-8-7-----5-------------------------|
B|-5-8--------8-5---8-5---5-6-5-6-8-6-5-----|
G|----------------------5---------------5-7-|
D|------------------------------------------|
A|------------------------------------------|
E|------------------------------------------|

Part E

E|-----10-8-7-----5-5-7-8-8-7--------|
B|-5-8--------8-5-------------8-6----|
G|--------------------------------7--|
D|-----------------------------------|
A|-----------------------------------|
E|-----------------------------------|

Part F

E|-----------------------------------------------------|
B|-5---6-8-6-5---6-8-6-5-5-----8-6-----5---5-6---------|
G|---7---------7-----------7-5-----5-7---7-----4-7-5---|
D|-----------------------------------------------------|
A|-----------------------------------------------------|
E|-----------------------------------------------------|
Login or Register to remove this ad.