Ads

Pogo Level (Snoopy's Silly Sports Spectacular) Guitar Tab

Submitted: Sep 10, 2011 by sir0nion

5
Average: 5 (2 votes)
Download | Listen
Game: Snoopy's Silly Sports Spectacular
Composer(s): Unknown
Style: Arrangement, Fingerstyle

AutoScroll: Slow | Medium | Fast
Song Title: 	Pogo Level
Game: 		Snoopy's Silly Sports Spectacular
Composer: 	Unknown
Tabbed By: 	James Carson
Date: 		09/09/2011

     E  Q    E  E  E  E  E  E  E  Q       E  Q    E  E  E  E  E  E  E  Q     
E||--0--0----2--2-----4-----4-----4----|--0--0----2--2-----4-----4-----4----|
B||------------------------------------|------------------------------------|
G||--2--2----2--2-----4-----4-----4----|--2--2----2--2-----4-----4-----4----|
D||----------0-------------------------|----------0-------------------------|
A||--0---------------------------------|--0---------------------------------|
E||----------------0-----0-----0-------|----------------0-----0-----0-------|


  E  Q    E  E  E  E  E  E  E  Q       E  Q    E  E  E  E  E  E  E  Q     
--0--0----2--2-----4-----4-----4----|--0--0----2--2-----4-----4-----4----|
------------------------------------|------------------------------------|
--2--2----2--2-----4-----4-----4----|--2--2----2--2-----4-----4-----4----|
----------0-------------------------|----------0-------------------------|
--0---------------------------------|--0---------------------------------|
----------------0-----0-----0-------|----------------0-----0-----0-------|


  E  E  E  E  E  E  E  E  E  Q.        E  E  E  E  Q    H.            
--5--4--2--2------------------------|--------------------------------|
--2-----------5--3--3--2------------|--2--3--2--L--5-----------------|
--2-----------------2-----4--L------|--2----------------1------------|
--2-----------------4---------------|--2----------------2------------|
--0-----------------4---------------|--0-----------------------------|
------------------------------------|-------------------0------------|


  E   E  E  E  E  E  E  E  E  Q.        E  E  E  E  Q    E  E  E  E  E  E   
--5p--4--2--2------------------------|-------------------------------------|
--2------------5--3--3--2------------|--2--3--2--L-------------------------|
--2------------------2-----4--L------|--2-----------2-------------------1--|
--2------------------4---------------|--2----------------------2--0--2-----|
--0------------------4---------------|--0-------------------2--------------|
-------------------------------------|-------------------0-----------------|


  E  E  E  E  E  E  E  E  E  Q.        E  E  E  E  Q    H.            
--5--4--2--2------------------------|--------------------------------|
--2-----------5--3--3--2------------|--2--3--2--L--5-----------------|
--2-----------------2-----4--L------|--2----------------1------------|
--2-----------------4---------------|--2----------------2------------|
--0-----------------4---------------|--0-----------------------------|
------------------------------------|-------------------0------------|


  E  E  E  E  E  E  E  E  E  Q.        E  E  E  E  Q    E  E  E  E  E  E   
--5--4--2--2------------------------|-------------------------------------|
--2-----------5--3--3--2------------|--2--3--2--L-------------------------|
--2-----------------2-----4--L------|--2-----------2-------------------1--|
--2-----------------4---------------|--2----------------------2--0--2-----|
--0-----------------4---------------|--0-------------------2--------------|
------------------------------------|-------------------0-----------------|


  E  E  E  E  E  E  E  E  E  Q.        E   E  E  Q    E  Q    E  Q.      
--------------0--2--4--5--7---------|--9--10--9-------5-------0---------|
-----0--2--3------------------------|-----------------------------------|
--2---------------------------------|-----------------------------------|
-----------------------------0------|--0--------------------------------|
--0--------2--------4---------------|------------4-------2-------0------|
------------------------------------|-----------------------------------|


  E  E  E  E  E  E  E  E  E  Q.        E   E  E  Q     E   Q     E  Q.      
--------------0--2--4--5--7---------|--9--10--9-----------------12---------|
-----0--2--3------------------------|-----------------10-------------------|
--2---------------------------------|--------------------------------------|
-----------------------------0------|--------------------------------------|
--0--------2--------4---------------|--7---------9--------11--------9------|
------------------------------------|--------------------------------------|


  E  E  E  E  E  E  E  E  E  Q.        E   E  E  Q    E  Q    E  Q.      
--------------0--2--4--5--7---------|--9--10--9-------5-------0---------|
-----0--2--3------------------------|-----------------------------------|
--2---------------------------------|-----------------------------------|
-----------------------------0------|--0--------------------------------|
--0--------2--------4---------------|------------4-------2-------0------|
------------------------------------|-----------------------------------|


  E  E  E  E  E  E  E  E  E  Q.        E   E  E  Q     E   Q     E   Q.       
--------------0--2--4--5--7---------|--9--10--9-----------------12----------||
-----0--2--3------------------------|-----------------10------------10------||
--2---------------------------------|----------------------9---------9------||
-----------------------------0------|----------------------9--------11------||
--0--------2--------4---------------|--7---------9--------11---------0------||
------------------------------------|---------------------------------------||




Duration Legend
---------------
W - whole
H - half
Q - quarter
E - 8th
S - 16th
T - 32nd
X - 64th
. - note dotted
|-n-|  - n-tuplets


Tablature Legend
----------------
L - tied note
x - dead note
g - grace note
(n) - ghost note
> - accentuded note
NH - natural harmonic
AH - artificial harmonic
TH - tapped harmonic
SH - semi harmonic
PH - pitch harmonic
h - hammer on
p - pull off
b - bend
br - bendRelease
pb - preBend
pbr - preBendRelease
brb - bendReleaseBend
\n/ - tremolo bar dip
\n - tremolo bar dive
-/n - tremolo bar Release up
/n\ - tremolo bar inverted dip
/n - tremolo bar return
-\n - tremolo bar Release down
S - shift slide
s - legato slide
/ -  slide into from below or out of upwards
\ -  slide into from above or out of downwards
~ - vibrato
W - wide vibrato
tr - trill
TP - tremolo picking
T - tapping
S - slap
P - pop
< - fade in
^ - brush up
v - brush down
Login or Register to remove this ad.