Ads

Junker HQ Lobby (Snatcher) Guitar Tab

Submitted: Jan 17, 2010 by LTRobson (Last updated: Jan 19, 2010)

5
Average: 5 (1 vote)
Download | Listen
Game: Snatcher
Composer(s): Izumi Mutsuhiko
Style: 2 or more instruments, Alternate picking, Transcription

AutoScroll: Slow | Medium | Fast
Snatcher - Junker HQ Lobby (Mega CD)
Tabbed by LTRobson 16/06/07

Standard tuning

Bass melody + 2nd part aren't written to match up timimg-wise.

Bass
|---------------------------------------|
|---------------------------------------|
|---------------------------------------|
|--------------------5------------------|
|------1----3----1---------1----3---4/5-|
|-3-------------------3-----------------|

2nd instrument
|-9/10--10----------10--9/10--10--------10-10-|
|-9/10--10----------10--9/10--10--------10-10-|
|---------------------------------------------|
|---------------------------------------------|
|---------------------------------------------|
|---------------------------------------------|

Bass
|---------------------------------------------------|
|---------------------------------------------------|
|---------------------------------------------------|
|---------------------------------------------------|
|------1----3----4-/--9-8-9--8(9)(8)----------------|
|-2----------------------------------9-4-2----0-1-2-|

2nd instrument
|-10\9--9-----------9--9--8/9--9-|
|-10\9--9-----------9--9--8/9--9-|
|--------------------------------|
|--------------------------------|
|--------------------------------|
|--------------------------------|


Login or Register to remove this ad.

4 comments on Junker HQ Lobby

no music available yet

no music available yet

Hi Vic, you can hear it at

Hi Vic, you can hear it at the beginning of this video:
http://www.youtube.com/watch?v=8fbX01saLqc

Added :-)

Added :-)

I love you

5

You are an amazing person for this.