Ads

Snail Town (Snailiad) Bass Tab

Submitted: Aug 22, 2011 by soundsandstuff

5
Average: 5 (3 votes)
Download | Listen
Game: Snailiad
Composer(s): Auriplane
Style: Transcription

AutoScroll: Slow | Medium | Fast
Snailiad - Snail Town
Platform: PC
Developer/Publisher: Auriplane
Composed by: Auriplane

Bass Guitar Tab Created By: soundsandstuff channel www.youtube.com/user/soundsandstuff
Completed on: 8/21/11


Standard Tuning
  
  						  Part A
G|-------------------13------12------------------|-----------------------------------------------|
D|-----------------------------------15p13-------|-----------15----13-12-13----------------------|
A|-----------------------------------------15p13-|--------------------------13-------------------|
E|-----------------------------------------------|-13-----13----------------------10----11----15-|


G|-----------------------12-13-12-13-------------------|-----------------------------------------------|
D|-----------15----13-12-------------15----15p13-------|-----------15----13-12-13----------------------|
A|-----------------------------------------------15p13-|--------------------------13-------------------|
E|-13-----13-------------------------------------------|-13-----13----------------------10----11----15-|


G|-----------------------12-13-12-13-------------------|-----------------------------------------------|
D|-----------15----13-12-------------15----15p13-------|-----------15----13-12-13----------------------|
A|-----------------------------------------------15p13-|--------------------------13-------------------|
E|-13-----13-------------------------------------------|-13-----13----------------------10----11----15-|


G|-----------------------12-13-12-13-------------------|-----------------------------------------------|
D|-----------15----13-12-------------15----15p13-------|-----------15----13-12-13----------------------|
A|-----------------------------------------------15p13-|--------------------------13-------------------|
E|-13-----13-------------------------------------------|-13-----13----------------------10----11----15-|

		

						     Part B
G|-----------------------12-13-12-13----------------|--------------------------------------|
D|-----------15----13-12-------------15-15----------|--------------------------------------|
A|-----------------------------------------------15-|-13--------------------------------17-|
E|-13-----13-------------------------------13h15----|-----------------------------15h17----|


G|---------------------------------|-------------|-------------|-------------|------------------------------|
D|---------------------------------|-------------|-------------|-13----12----|--------------15------15------|
A|-15------------------------------|-13----12----|-------------|-------------|-15-----------------------15--|
E|-----------------------------15--|-------------|-15----13----|-------------|------13--13------13----------|


G|-------------15----13-12-13----------------------|-------------15----13-14-15----13----------------|
D|----------------------------13-------------------|-------------------------------------13----12----|
A|-13-------13----------------------------------15-|-13-------13-------------------------------------|
E|----------------------------------13----15-------|-------------------------------------------------|


G|-------------------13------12------------------|---------------------------------|
D|-----------------------------------15p13-------|---------------------------------|
A|-----------------------------------------15p13-|---------------------------------|
E|-----------------------------------------------|---------------------------------| Repeat from start


Notes:

p - pull off
h - hammer on

thank you for playing!
Login or Register to remove this ad.

2 comments on Snail Town

auuuuggghhhh

5

I can't believe how fun this is to play- thanks for tabbing it!

your welcome! the game itself

your welcome! the game itself is incredibly fun to play, give it a go if you haven't already! x)