Ads

Isis (Snailiad) Bass/Guitar Tab

Submitted: Jul 06, 2011 by Defeature (Last updated: Jul 07, 2011)

5
Average: 5 (5 votes)
Download | Listen
Game: Snailiad
Composer(s): Auriplane
Style: 2 or more instruments, Alternate picking

AutoScroll: Slow | Medium | Fast
Shrine of Isis
From the game, Snailiad
Tabbed by Defeature


|===========================================LEAD MELODY=============================================|
                                                                                                     
e|--------------------------------------------------------------------------------------------------
B|--------------------------------------11----------------------------------11----------------------`
G|--10----12----13----12----10----12----------13----10----12----13----12----------13----12----13----`
D|-----10----10----10----10----10----10----10----10----11----11----11----11----11----11----11----11-`
A|--------------------------------------------------------------------------------------------------`
E|--------------------------------------------------------------------------------------------------`
                                                                                                    `

`---------------------------------------------------------------------------------------------------|
`---------------11----------------------------------------------------------11----------------------|
`---12----13----------13----12----13----12----10----10----12----13----12----------13----12----10----|
`------13----13----13----13----13----13----13----13----11----11----11----11----11----11----11----11-|
`---------------------------------------------------------------------------------------------------|
`---------------------------------------------------------------------------------------------------|
                                              
|===========================================BASS MELODY=============================================|


G|--------------------10-------------8---------------------------------------------------------
D|-----------------10----------------------11--------------------------------------------13----
A|--8--------------------------------------------11p10----------8h10h11-------------13---------
E|-----------------------------------------------------9----------------11---------------------

G|-----13p12--------------------------------
D|-----------11-----------------------------
A|-------------------11p10------------------
E|-------------------------9---------9------

G|--------------------10-------------8---------------------------------------------------------
D|-----------------10----------------------11--------------------------------------------13----
A|--8--------------------------------------------11p10-8--------10---11-------------13---------
E|----------------------------------------------------------------------11---------------------

G|--12h13p12--------------------------------
D|-----------11-----------------------------
A|-------------------11p10------------------
E|-------------------------9----------------



Well, that's my first tab posted onto gametabs. Hope you enjoy it, and feel
free to correct me on the bass melody. If you wanna learn the timing, here's
the link to the song on youtube.  [I changed the bassline :-)  -Auri]

http://www.youtube.com/watch?v=_E-nwbjDYQ4

~All credit to Auriplane, for creating Snailiad and making the music originally~
Login or Register to remove this ad.

6 comments on Isis

[email protected]__v !

Thanks

Thanks a bunch for correcting the bass line. :P I was too lazy to pick up my bass, so I just tabbed it for guitar. Haha and I was wondering why it looked so different.

[email protected]__V

:D

5

Nice!

(No subject)

so we accepting flash game tabs now? or just snailworld tabs?

Back to /b/ with

Back to /b/ with you!!!

Anyways, good job to both you and Auri on this, Defeature!

(No subject)

Twilight-deal-with-it.gif