Ads

Balloon Mood (Sketchbook ~full color'S~) Guitar Tab

Submitted: Oct 22, 2013 by tomorning

5
Average: 5 (5 votes)
Download | Listen
Game: Sketchbook ~full color'S~
Composer(s): Ken Muramatsu
Style: Arrangement, Fingerstyle

This song is also called Yume kara Samete mo

AutoScroll: Slow | Medium | Fast
                                         Ballonmood
                                     ( バルーンムード )
                                   - gt solo arrange -
                              ~ from anime "Sketchbook full color's" ~ 

Music by Ken Muramatsu (村松 健)
Arranged by to*morning

(mordent = m)

Tempo = 112


E |-----4--4----|--4----5----5h-7------|--4--2--0----|------------------------|
B |--0--4-------|--0-------------------|--2----------|--1----1h-3-----1-------|
G |-------------|--7-------------------|--2----------|--2---------------------|
D |-------------|----------------------|-------------|--4---------------------|
A |-------------|----------------------|-(0)---------|--0---------------------|
E |-------------|----------------------|-------------|------------------------|



|-----0--0----|--------4----|-----------|--0----------|
|--0----------|--5--7-------|--0--------|--0-----4----|
|-------------|--6----------|--2--------|-------------|
|-------------|-------------|--2--------|--2----------|
|-------------|--4----------|-----------|-------------|
|--4----------|-------------|--2--------|-------------|



|-----4--4----|--4-----5----5h-7-------|--4--2--0----|-------------------------|
|--0--4-------|--0---------------------|--2----------|--1----------------------|
|-------------|--7---------------------|--2----------|--2-----------4------2---|
|--2----------|------------------------|--2----------|--4----------------------|
|-------------|--7---------------------|--0----------|--0----------------------|
|-------------|------------------------|-------------|-------------------------|



|-----0--0----|--------4----|--7--------|--5--------|
|-------------|--5--7-------|--5--------|--5--------|
|--1----------|--6----------|-----------|--4--------|
|--2----------|-------------|--4--------|-----------|
|-------------|--4----------|-----------|-----------|
|--4----------|-------------|-----------|-----------|



|-----7--7----|--7--9--10---|--9----------|--4----------|
|-------------|-------------|-----12-10---|--0--0-------|
|-----7--7----|--7--9--11---|-----11------|--1--1-------|
|-----4-------|-------------|-------------|-----3-------|
|-------------|--0----------|--11---------|--4----------|
|--7----------|-------------|-------------|-------------|



|-----5--5----|-----7--8----|--7--5-------|--7----------|
|-------------|--10---------|--------6----|--0--5-------|
|-----6--6----|--6--7--9----|--7--6--2----|--0--4-------|
|--4----------|-------------|--0----------|-----3-------|
|-------------|--7----------|-------------|-------------|
|-------------|-------------|-------------|--3----------|



|-----0--0----|--0--2--3----|-----0--0----|--0--2--3----|
|-----0--0----|--0--3--5----|-------------|-----1--3----|
|-----0--0----|--0--2--4----|-----4--4----|--4--2--4----|
|-----2--2----|-------------|-----4--4----|--4----------|
|--3----------|-(3)---------|--2----------|-(2)---------|
|-------------|-------------|-------------|-------------|



|-----5--5----|--5--7--8----|--7----------|-------------|
|-------------|-------------|--5--5-------|-----2-------|
|-----5--5----|--5--7--9----|--4--6-------|-----2-------|
|--7----------|--5----------|--4----------|-----1-------|
|-------------|-------------|-------------|--2----------|
|-------------|-------------|-------------|-------------|



|-----4--4----|--4-----5-----5h-7-------|--4--2--0----|------------------------|
|--0--4-------|--0----------------------|--2----------|--1---------------------|
|-------------|--7----------------------|--2----------|--2----------4------2---|
|--2----------|-------------------------|--2----------|--4---------------------|
|-------------|--7----------------------|--0----------|--0---------------------|
|-------------|-------------------------|-------------|------------------------|



|-----0--0----|--------4----|--7----------|--------2----|
|-------------|--5--7-------|--5-----5----|--4--5-------|
|--1----------|--6----------|-------------|-------------|
|--2----------|-------------|--4----------|-------------|
|-------------|--4----------|-------------|--2----------|
|--4----------|-------------|-------------|-------------|



|-----7--7----|--7--5--4----|--9----------|-----------------8----|
|-----7--7----|--6----------|--10---------|--5-------------------|
|-----7--7----|--4----------|--9----------|--5-------------------|
|-------------|-------------|--11---------|--7-------------------|
|--5----------|--4----------|-------------|----------------------|
|-------------|-------------|--------4----|--5-------------------|



|--7--------|-----------|-----------|--4-----2----|
|--4--------|--5--------|-----------|--2--5-------|
|--4--------|--6--------|--2--------|--2----------|
|-----------|--6--------|--2--------|-------------|
|-----------|--4--------|-----------|--2----------|
|--4--------|-----------|--2--------|-------------|


                         rit........................fermete
|--0--------|-----------|-----------|--4-----2----|--4--------||
|--0--------|--2--------|--4--------|--2--5-------|--4--------||
|--1--------|--2--------|--4--------|--2----------|--4--------||
|--2--------|--2--------|--2--------|-------------|--6--------||
|-----------|-----------|-----------|--2----------|--7--------||
|--0--------|--2--------|--4--------|-------------|-----------||fine
Login or Register to remove this ad.

2 comments on Balloon Mood

Beautiful

5

Beautiful

ilike "Ken Muramatsu" melodys

ilike "Ken Muramatsu" melodys ;D
thanks reply