Level 2 (Skate or Die 2) Guitar Tab

Submitted: Oct 17, 2012 by soundsandstuff

0
Download | Listen
Game: Skate or Die 2
Composer(s): Rob Hubbard
Style: Transcription

AutoScroll: Slow | Medium | Fast
Skate or Die 2: The Search for Double Trouble
Platform: NES Nintendo Entertainment System
Developer/Publisher: Electronic Arts
Composed by: Rob Hubbard

Guitar Tab Created By: soundsandstuff channel www.youtube.com/user/soundsandstuff
Completed on: 10/15/12
Requested by: JxL3G3NDx  http://www.youtube.com/user/JxL3G3NDx


This tab was made one octave lower to make it playable on a normal acoustic guitar



Standard Tuning

  

   Part A
E|-----------------------------------|-----------------|----------------------------------|
B|-------------6---5-----------------|-----8-----------|----------------------------------|
G|---------5-----------5-------7-----|-----------------|---------5------------------------|
D|-----5-----------------------------|-----------------|--------------8---7-------8-------|
A|-----------------------------------|-----------------|----------------------------------|
E|-----------------------------------|-----------------|----------------------------------|


E|--------|-----------------------------------|----------------|--------------------------------|
B|--------|-----------------------------------|----------------|---------3----------------------|
G|-5------|-------------3---2-----------------|-----5----------|--------------5---4-------5-----|
D|--------|---------5-----------3-------5-----|----------------|--------------------------------|
A|--------|-----3-----------------------------|----------------|--------------------------------|
E|--------|-----------------------------------|----------------|--------------------------------|


E|-----------------------------|------------------------------------|-----------------|-----------------------------|
B|-----3-----------------------|-------------6---5------------------|-----8-----------|-----------------------------|
G|-------------5---4----2------|---------5-----------5-------7------|-----------------|------5----------------------|
D|-----------------------------|-----5------------------------------|-----------------|-----------8---7-------8-----|
A|-----------------------------|------------------------------------|-----------------|-----------------------------|
E|-----------------------------|------------------------------------|-----------------|-----------------------------|


E|---------|------------------------------------|----------------|---------------------------------|
B|---------|------------------------------------|----------------|---------3-----------------------|
G|-5-------|-------------3---2------------------|-----5----------|--------------5---4-------5------|
D|---------|---------5-----------3-------5------|----------------|---------------------------------|
A|---------|-----3------------------------------|----------------|---------------------------------|
E|---------|------------------------------------|----------------|---------------------------------|



   		       		  Part B
E|------------------------------|------------------------------|------------------------------------|
B|-----3------------------------|-10------------7-------8------|-----7------------------------------|
G|-------------5---4----2-------|------9----7------------------|---------7-------7------------------|
D|------------------------------|------------------------------|---------------------10--9----------|
A|------------------------------|------------------------------|------------------------------------|
E|------------------------------|------------------------------|------------------------------------|


E|-------------------------------------|---------|------------------------------|-----------------8---7------------|
B|-------------------------------------|---------|-10------------7-------8------|-----7-------------------8--------|
G|---------7---------------------------|-7-------|------9----7------------------|---------7------------------------|
D|-----------------10--9-------10------|---------|------------------------------|----------------------------------|
A|-------------------------------------|---------|------------------------------|----------------------------------|
E|-------------------------------------|---------|------------------------------|----------------------------------|



					 Part C
E|-10--7-------9-----------------------|-----------------------------|--------------5--------------|
B|-----------------10------8---10------|-----------------8----5------|-----8-----------------8-----|
G|-------------------------------------|-----------------------------|-----------------------------|
D|-------------------------------------|-----------------------------|-----------------------------|
A|-------------------------------------|-----------------------------|-----------------------------|
E|-------------------------------------|-----------------------------|-----------------------------|


E|------------------------------------|--------------5--------------|------------------------------------|
B|---------6---------------5---6------|-----8-----------------8-----|---------6---------------5---6------|
G|-----------------7------------------|-----------------------------|-----------------7------------------|
D|------------------------------------|-----------------------------|------------------------------------|
A|------------------------------------|-----------------------------|------------------------------------|
E|------------------------------------|-----------------------------|------------------------------------|


E|--------------5--------------|-----------------------------------|-----5--------8--------10-----|
B|-----8-----------------8-----|---------6---------------5---6-----|------------------------------|
G|-----------------------------|-----------------7-----------------|------------------------------|
D|-----------------------------|-----------------------------------|------------------------------|
A|-----------------------------|-----------------------------------|------------------------------|
E|-----------------------------|-----------------------------------|------------------------------|


E|--------|--------------5--------------|-----------------------------------|--------------5--------------|
B|--------|-----8-----------------8-----|---------6---------------5---6-----|-----8-----------------8-----|
G|--------|-----------------------------|-----------------7-----------------|-----------------------------|
D|--------|-----------------------------|-----------------------------------|-----------------------------|
A|--------|-----------------------------|-----------------------------------|-----------------------------|
E|--------|-----------------------------|-----------------------------------|-----------------------------|


E|-----------------------------------|--------------5--------------|-----------------------------------|
B|---------6---------------5---6-----|-----8-----------------8-----|---------6---------------5---6-----|
G|-----------------7-----------------|-----------------------------|-----------------7-----------------|
D|-----------------------------------|-----------------------------|-----------------------------------|
A|-----------------------------------|-----------------------------|-----------------------------------|
E|-----------------------------------|-----------------------------|-----------------------------------|




						Part D
E|-----5--------8--------10-----|--------|-----------------------------------|-----------------|
B|------------------------------|--------|-------------4---3-----------------|-----6-----------|
G|------------------------------|--------|---------3-----------3-------5-----|-----------------|
D|------------------------------|--------|-----3-----------------------------|-----------------|
A|------------------------------|--------|-----------------------------------|-----------------|
E|------------------------------|--------|-----------------------------------|-----------------|


E|------------------------------------|-----------------|------------------------------------|
B|-------------4---3------------------|-----6-----------|-------------4---3------------------|
G|---------3-----------3-------5------|-----------------|---------3-----------3-------5------|
D|-----3------------------------------|-----------------|-----3------------------------------|
A|------------------------------------|-----------------|------------------------------------|
E|------------------------------------|-----------------|------------------------------------|


E|-----------------|-----------------------------|---------3---------3---3-----|------------------------------------|
B|-----6-----------|-----6--------5--------6-----|-----------------------------|-------------4---3------------------|
G|-----------------|-----------------------------|-----------------------------|---------3-----------3-------5------|
D|-----------------|-----------------------------|-----------------------------|-----3------------------------------|
A|-----------------|-----------------------------|-----------------------------|------------------------------------|
E|-----------------|-----------------------------|-----------------------------|------------------------------------|


E|-----------------|------------------------------------|-----------------|------------------------------------|
B|-----6-----------|-------------4---3------------------|-----6-----------|-------------4---3------------------|
G|-----------------|---------3-----------3-------5------|-----------------|---------3-----------3-------5------|
D|-----------------|-----3------------------------------|-----------------|-----3------------------------------|
A|-----------------|------------------------------------|-----------------|------------------------------------|
E|-----------------|------------------------------------|-----------------|------------------------------------|


E|----------------|------------------------------|---------3---------3---3-----|--------|
B|-----6----------|-----6--------5--------6------|-----------------------------|--------|
G|----------------|------------------------------|-----------------------------|--------|
D|----------------|------------------------------|-----------------------------|--------|
A|----------------|------------------------------|-----------------------------|--------|
E|----------------|------------------------------|-----------------------------|--------|


E|--------|
B|--------|
G|--------|
D|--------|
A|--------|
E|--------| 

Repeat from Part A

----------------------------------------

Thank you for playing!!!


Login or Register to remove this ad.