Chequesleeves (The Sims Medieval) Guitar Tab

Submitted: May 10, 2011 by Kabukibear (Last updated: May 10, 2011)

5
Average: 5 (3 votes)
Download | Listen
Game: The Sims Medieval
Composer(s): Steve Jablonsky
Style: Fingerstyle, Transcription
Series: The Sims

This song is also called Chartreusesleeves

AutoScroll: Slow | Medium | Fast
Chequesleeves                                   
~The Sims Medieval~
Composed by: Steve Jablonsky
Transcribed by: Justin Lincoln

6th string to low A
(Capo 4)



     E  E  E  E  E  E  E  E     E  E  E  E  E  E  E  E   
E||--------------0-----------|--------------0-----------|
B||--------------------------|--------------------------|
G||-----0-----0-----0-----0--|-----0-----0-----0-----0--|
D||--------2-----------2-----|--------2-----------2-----|
A||--3-----------------------|--2-----------------------|
A||--3-----------------------|--2-----------------------|


  E  E  E  E  E  E  E  E     E  E  E  E  E  E  E  E   
--------------0-----------|--------------0-----------|
--------------------------|--------------------------|
-----0-----0-----0-----0--|-----0-----0-----0-----0--|
--------2-----------2-----|--------2-----------2-----|
--0-----------------------|--2-----------------------|
--0-----------------------|--2-----------------------|


  E  E  E  E  E  E  E  E     E  E  E  E  E  E  E  E   
--------------0-----------|--------------0-----------|
--------------------------|--------------------------|
-----0-----0-----0-----0--|-----0-----0-----0-----0--|
--------2-----------2-----|--------2-----------2-----|
--3-----------------------|--2-----------------------|
--3-----------------------|--2-----------------------|


  E  E  E  E  E  E  E  E     E  E  E  E  E  E  E  E   
--------------0-----------|--------------0-----------|
--------------------------|--------------------------|
-----0-----0-----0-----0--|-----0-----0-----0--------|
--------2-----------2-----|--------2-----------2-----|
--0-----------------------|--2--------------------3--|
--0-----------------------|--2-----------------------|


  E  E  E  E  E  E  E  E     E  E  E  E  E  E  E  E   
--------------3--0--3--0--|--------------3--0--3--0--|
--------1-----------------|--------1-----------------|
-----0-----0--------------|-----0-----0--------------|
--------------------------|--------------------------|
--3-----------------------|--2-----------------------|
--3-----------------------|--2-----------------------|


  E  E  E  E  E  E  E  E     E  E  E  E  E  E  E  E   
--------------3--0--3--0--|--------------3--0--3--0--|
--------1-----------------|--------1-----------------|
-----0-----0--------------|-----0-----0--------------|
--------------------------|--------------------------|
--0-----------------------|--2-----------------------|
--0-----------------------|--2-----------------------|


  E  E  E  E  E  E  E  E     E  E  E  E  E  E  E  E   
--------------3--0--3--0--|--------------3--0--3--0--|
--------1-----------------|--------1-----------------|
-----0-----0--------------|-----0-----0--------------|
--------------------------|--------------------------|
--3-----------------------|--2-----------------------|
--3-----------------------|--2-----------------------|


  E  E  E  E  E  E  E  E     E  E  E  E  E  E  E  E   
--------------3--0--3--0--|--------------3--0--3-----|
--------1-----------------|--------1-----------------|
-----0-----0--------------|-----0-----0--------------|
--------------------------|--------------------------|
--0-----------------------|--2--------------------3--|
--0-----------------------|--2-----------------------|


  E  E  E  E  E  E  E  E     E  E  E  E  E  E  E  E   
--------------------------|--------------------------|
--------------------------|--------------------------|
--------------0-----------|--------------0-----------|
-----0-----0-----0-----0--|-----0-----0-----0-----0--|
--3-----3-----------3-----|--2-----3-----------3-----|
--3-----------------------|--2-----------------------|


  E  E  E  E  E  E  E  E     E  E  E  E  E  E  E  E   
--------------------------|--------------------------|
--------------------------|--------------------------|
--------------0-----------|--------------0-----------|
-----0-----0-----0-----0--|-----0-----0-----0-----0--|
--0-----3-----------3-----|--2-----3-----------3-----|
--0-----------------------|--2-----------------------|


              |-3-|                         |-3-|           
  E  E  E  E  S S S E  E  E     E  E  E  E  S S S E  E  E   
-----------------------------|-----------------------------|
-----------------------------|-----------------------------|
----------------0------------|----------------0------------|
-----0-----0--2---2-0-----0--|-----0-----0--2---2-0-----0--|
--3-----3--------------3-----|--2-----3--------------3-----|
--3--------------------------|--2--------------------------|


              |-3-|                         |-3-|           
  E  E  E  E  S S S E  E  E     E  E  E  E  S S S E  E  E   
-----------------------------|-----------------------------|
-----------------------------|-----------------------------|
----------------0------------|----------------0------------|
-----0-----0--2---2-0-----0--|-----0-----0--2---2-0-----0--|
--0-----3--------------3-----|--2-----3--------------3-----|
--0--------------------------|--2--------------------------|


  E  E  E  E  E  E  E  E     E  E  E  E  E  E  E  E   
--------------0-----------|--------------0-----------|
--------------------------|--------------------------|
-----0-----0-----0-----0--|-----0-----0-----0-----0--|
--------2-----------2-----|--------2-----------2-----|
--3-----------------------|--2-----------------------|
--3-----------------------|--2-----------------------|


  E  E  E  E  E  E  E  E     E  E  E  E  E  E  E  E   
--------------0-----------|--------------0-----------|
--------------------------|--------------------------|
-----0-----0-----0-----0--|-----0-----0-----0-----0--|
--------2-----------2-----|--------2-----------2-----|
--0-----------------------|--2-----------------------|
--0-----------------------|--2-----------------------|


  E  E  E  E  E  E  E  E     E  E  E  E  E  E  E  E   
--------------0-----------|--------------0-----------|
--------------------------|--------------------------|
-----0-----0-----0-----0--|-----0-----0-----0-----0--|
--------2-----------2-----|--------2-----------2-----|
--3-----------------------|--2-----------------------|
--3-----------------------|--2-----------------------|


  E  E  E  E  E  E  E  E     E  E  E  E  E  E  Q       W                  
--------------0-----------|--------------0----------|-------------------||
--------------------------|-------------------------|-------------------||
-----0-----0-----0-----0--|-----0-----0-----0-------|-------------------||
--------2-----------2-----|--------2-----------2----|--L----------------||
--0-----------------------|--2----------------------|-------------------||
--0-----------------------|--2----------------------|-------------------||




Duration Legend
---------------
W - whole
H - half
Q - quarter
E - 8th
S - 16th
T - 32nd
X - 64th
. - note dotted
|-n-|  - n-tuplets


Tablature Legend
----------------
L - tied note
Login or Register to remove this ad.