Ads

Otherside (Silent Hill) Bass/Guitar Tab

Submitted: Dec 15, 2011 by daniel guerra c...

5
Average: 5 (1 vote)
Download | Listen
Game: Silent Hill
Composer(s): Akira Yamaoka
Style: 2 or more instruments, Arrangement

This song is also called Silent Hill Bloopers

Click here for a video example.

AutoScroll: Slow | Medium | Fast
Silent Hill (Otherside)
(Guitars & Bass Cover)

Title	: Silent Hill (Otherside)
Game	: Silent Hill
Cover	: Daniel Guerra Caballero (original) 
Video	: www.youtube.com/watch?v=-Mp1h_tZQ9s
Date	: December, 2011
Web	: http://danielguerracaballero.blogspot.com
Contact : [email protected]


***********
1st guitar
***********
1---------------------------------------------
2---------------------------------------------
3------1-----5-5------------------------------ (x2)
4----3-----3-----/3---------------------------
5--3------------------------------------------
6---------------------------------------------

1---------------------------------------------
2---------------------------------------------
3-3-2-1-(1)-1/3--6-5--3-5----3-6-6-3----------
4---------------------------------------------
5---------------------------------------------
6---------------------------------------------

1---------------------------------------------
2---------------------------------------------
3------1-----5-5------------------------------ (x2)
4----3-----3-----/3---------------------------
5--3------------------------------------------
6---------------------------------------------

1---------------------------------------------
2---------------------------------------------
3-3-2-1-(1)-1/3--6-5--3-5----3-6-6-3----------
4---------------------------------------------
5---------------------------------------------
6---------------------------------------------

1---------------------------------------------
2---------------------------------------------
3--7-7/8-5-1--5------------------------------- (x4)
4---------------3-----------------------------
5---------------------------------------------
6---------------------------------------------

***********
2nd guitar
***********

1-----|     |-----------|    |------------|     
2-----|     |-----------|    |------------|     
3---1-|     |---------3-|    |----------1-|     
4---3-|(x20)|---------3-|(x7)|----------3-|(x23)
5-3-3-|     |-3-2---1-1-|    |--1-2---3-3-|     
6-----|     |-----------|    |------------|     

1------------|    |------------|
2------------|    |------------|
3----------3-|    |----------1-|
4----------3-|(x7)|----------3-|(x40)
5--3-2---1-1-|    |--1-2---3-3-|
6------------|    |------------|

*****
Bass
*****

1------|     |------------|    |----------|
2---(6)|     |---------(8)|    |-------(6)|
3-8----|(x20)|-8-7---6----|(x7)|-6-7-8----|(x23)
4------|     |------------|    |----------|

1------------|    |----------|
2---------(8)|    |-------(6)|
3-8-7---6----|(x7)|-6-7-8----|(x40)
4------------|    |----------|


**********
Keyboards 
**********

1--------------------------------13h15-16--20-19----------
2-------9--15-16-13--13h15-16-13--------------------------
3-10-12---------------------------------------------------
4---------------------------------------------------------
5---------------------------------------------------------
6---------------------------------------------------------
5---------------------------------------------------------
6---------------------------------------------------------


1-13-15--15-16---13-15---20-21-19-------------------------
2---------------------------------------------------------
3---------------------------------------------------------
4---------------------------------------------------------
5---------------------------------------------------------
6---------------------------------------------------------
5---------------------------------------------------------
6---------------------------------------------------------


1---------------------------------------------------------
2--15-16-13-----------9-16-15-------9-16-15---------------
3----------13---10-12---------10-12-----------------------
4---------------------------------------------------------
5---------------------------------------------------------
6---------------------------------------------------------
5---------------------------------------------------------
6---------------------------------------------------------

1-16-13-------16-13----16-13-----16-15-16-15--------------
2-------13-15---------------------------------------------
3---------------------------------------------------------
4---------------------------------------------------------
5---------------------------------------------------------
6---------------------------------------------------------
5---------------------------------------------------------
6---------------------------------------------------------
Login or Register to remove this ad.