Ads

The Terminal Show (Silent Hill Homecoming) Guitar Tab

Submitted: Jul 31, 2012 by scarecrowlol (Last updated: May 21, 2014)

5
Average: 5 (2 votes)
Download | Listen
Game: Silent Hill Homecoming
Composer(s): Akira Yamaoka
Style: Arrangement, Fingerstyle

Click here for a video example.

AutoScroll: Slow | Medium | Fast
Title: The Terminal Show
SubTitle: Silent Hill Homecoming OST
Artist:  Akira Yamaoka
Music: Tabbed by Mitch Jackson

                                                       
             ^                        ^                                                           
       E  E  E  Q.     E  E     E  E  E  Q.     E  E
D ||-------------------------|-------------------------||
A ||---------6--5------------|--------6--5-------------||
F ||*--------5---------5-----|--------5---------5-----*|| X2
C ||*--------7------------7--|--------7------------7--*||
G ||------5------------------|-----5-------------------||
C ||---0---------------------|--0----------------------||

                        
           ^                        ^                        ^                        ^
     E  E  E  Q.     E  E     E  E  E  Q.     E  E     E  E  E  Q.     E  E     E  E  E  Q.     S S S S
  |--------13-12-----------|--------13-12-----------|--------13-12-----------|--------13-12-----------17-| 
  |--------13--------13----|--------13--------13----|--------13--------13----|--------13--------13--15---|
  |---------------------14-|---------------------14-|---------------------14-|--------------------14-----|
  |-----0------------------|-----0------------------|-----0------------------|-----0---------------------|
  |------------------------|------------------------|------------------------|---------------------------|
  |--0---------------------|--0---------------------|--0---------------------|--0------------------------|


               ^                        ^
       E  Q    Q.     S S S     E  Q    Q.     S S S
  ||---13-----------------17-|--12-----------------17--||
  ||-----------6--------15---|----------5--------15----||
  ||*----------5------17-----|----------5------14-----*|| X3
  ||*-----0----7-------------|-----0------------------*||
  ||-------------------------|-------------------------||
  ||---0---------------------|--0----------------------||

                                                     
             ^                        ^
     E  Q    Q.     S S S     E  Q    H
  |--13-----------------17-|--12--------------------|
  |----------6--------15---|----------5-------------|
  |----------5------17-----|----------5-------------|
  |-----0----7-------------|-----0------------------|
  |------------------------|------------------------|
  |--0---------------------|--0---------------------|

                                                          
                                                                                      1st Ending---------------->  2nd Ending---------------->
       E  E  E  E  E  E  E  E     E  E  E  E  E  E  E  E     E  E  E  E  E  E  E  E     E  E  E  E  E  E  E  E       E  E  E  E  E  E  E  E
  ||------5-----5-----5-----5--|-----5-----5-----5-----5--|--------------------------|---------------------------||---------------------------|
  ||---5-----5-----5-----5-----|--5-----5-----5-----5-----|--5-----5-----5-----5-----|--5-----5-----5-----5------||--5-----5-----5-----5------|
  ||*--------------------------|--------------------------|-----5-----5-----5-----5--|-----5-----5-----5-----5--*||-----5-----5-----5-----5---|
  ||*--------------------------|--------------------------|--------------------------|--------------------------*||---------------------------|
  ||---------------------------|--------------------------|--------------------------|---------------------------||---------------------------|
  ||---5-----5-----5-----5-----|--5-----5-----5-----5-----|--3-----3-----3-----3-----|--3-----3-----3-----3------||--2-----2-----2-----2------|

                                                          

         S S S S S E  E  E     W
  |----------5--------------|-------------------------|
  |------5-6---6-5----------|-------------------------|
  |-------------------5-----|-------------------------|
  |----------------7-----7L-|--L----------------------|
  |-------------------------|-------------------------|
  |-------------------------|-------------------------|

                        
             ^                        ^
       E  E  E  Q.     E  E     E  E  E  Q.     E  E
  ||-------------------------|-------------------------||
  ||---------6--5------------|--------6--5-------------||
  ||*--------5---------5-----|--------5---------5-----*|| X2
  ||*--------7------------7--|--------7------------7--*||
  ||------5------------------|-----5-------------------||
  ||---0---------------------|--0----------------------||

                           
           ^                        ^                        ^                        ^
     E  E  E  Q.     E  E     E  E  E  Q.     E  E     E  E  E  Q.     E  E     E  E  E  Q.     S S S S
  |--------13-12-----------|--------13-12-----------|--------13-12-----------|--------13-12-----------17-| 
  |--------13--------13----|--------13--------13----|--------13--------13----|--------13--------13--15---|
  |---------------------14-|---------------------14-|---------------------14-|--------------------14-----|
  |-----0------------------|-----0------------------|-----0------------------|-----0---------------------|
  |------------------------|------------------------|------------------------|---------------------------|
  |--0---------------------|--0---------------------|--0---------------------|--0------------------------|

  
               ^                        ^
       E  Q    Q.     S S S     E  Q    Q.     S S S                                                  
  ||---13-----------------17-|--12-----------------17---||
  ||-----------6--------15---|----------5--------15-----||
  ||*----------5------17-----|----------5------14------*|| X3
  ||*-----0----7-------------|-----0-------------------*||
  ||-------------------------|--------------------------||
  ||---0---------------------|--0-----------------------||

                                                     
             ^                        ^
     E  Q    Q.     S S S     E  Q    H
  |--13-----------------17-|--12--------------------|
  |----------6--------15---|----------5-------------|
  |----------5------17-----|----------5-------------|
  |-----0----7-------------|-----0------------------|
  |------------------------|------------------------|
  |--0---------------------|--0---------------------|

                              
     ^                        ^          ^             ^
     W                        H          H             W                        W
  |--6---------------------|--9----------6----------|--1L--------------------|--L---------------------||
  |--7---------------------|--10---------6----------|--4L--------------------|--L---------------------||
  |--8---------------------|--11---------8----------|--3L--------------------|--L---------------------||
  |--8---------------------|--11---------8----------|--1L--------------------|--L---------------------||
  |--6---------------------|--9----------6----------|--1L--------------------|--L---------------------||
  |------------------------|------------------------|--1L--------------------|--L---------------------||
Login or Register to remove this ad.

1 comment on The Terminal Show

Wow,amazing tab!

5

Wow,amazing tab!