Ads

Theme of Laura (Silent Hill 2) Guitar Tab

Submitted: Aug 21, 2022 by Omnicide (Last updated: Aug 24, 2022)

5
Average: 5 (5 votes)
Download | Listen
Game: Silent Hill 2
Composer(s): Akira Yamaoka
Style: Arrangement, Fingerstyle

This song is also called Main Theme

AutoScroll: Slow | Medium | Fast
Theme of Laura                                  
Silent Hill 2
Composed by Akira Yamaoka
Arranged by William Geesdorf


     Q    Q    Q    Q       E  E  Q.     E  E  E   
E||----------------------|------------------------|
B||----------------------|------------------------|
G||----------------------|--------0------------0--|
D||----------------------|-----2------------4-----|
A||--x----x----x----x----|--3------------5--------|
E||----------------------|------------------------|


  E  E  E  E  T  S. S E  S E     E  E  Q.     E  E  E   
------------------------------|------------------------|
------------------------------|------------------------|
--------0-----------0----0----|--------0------------0--|
-----5-----5--5h-7----5----4--|-----2------------4-----|
--7------------------------5--|--3------------5--------|
------------------------------|------------------------|


  E  E  E  E  Q    E  E     E  E  E  E  E  E  E  E     E  E  E  Q    E  E  E   
--------------0----------|--0-----0-----2-----2-----|--3-----3--2-------0-----|
-------------------7--0--|-----0-----0-----0-----0--|-----0----------0--------|
--------0----------------|--------------------------|-------------------------|
-----5-----5----------0--|-----------------0--------|--2-------------------0--|
--7----------------------|--3-----------------------|-------------------------|
-------------------------|--------------------------|-------------------------|


                                       ^  ^                                    
  E  E  Q    E  Q.        E  Q    Q    E  E  E      E  E  E  S  S E  E  E  E   
-----------------------|-------------------------|----------------------------|
--0-----0--------------|--0-------0--------------|-----------3s-5-------0-----|
-------------2---------|-------------------------|--------0----------4-----2--|
-----2----------2------|-----2---------4--4--L\--|-----2----------0-----------|
--3-------------5------|--3------------5--5--L\--|--3-------------------------|
-----------------------|-------------------------|----------------------------|


  E  E  E  Q    E  E  E     E  E  E  E  E  E  Q       E  E  E  Q    Q    E   
-------------------------|-------------------------|------------------------|
-----0-------------------|--------0----------------|-----------3----0-------|
-----------0----------0--|-----------2-----2-------|--0--------0------------|
--------2----------4-----|-----2--------0-----2----|--------2------------0--|
----------------2--------|--3----------------------|-----2------------------|
--0----------------------|-------------------------|--0---------------------|


  E  E  E  S  S E  E  E  E     E  E  E  Q    E  E  E   
----------------------------|-------------------------|
-----------3s-5-------0-----|-----0-------------------|
--------0----------4-----2--|-----------0----------0--|
-----2----------0-----------|--------2----------4-----|
--3-------------------------|----------------2--------|
----------------------------|--0----------------------|


                                                             ^    ^  ^  ^  ^   
  E  E  E  E  E  E  Q       E  E  E  E  E  E  Q         Q    Q    E  E  E  E   
-------------------------|--0----------------------||----------------------2--|
--------0-----------3----|-----------0-------------||----------------------0--|
-----------2-------------|--------0-----------0----||*---------------------0--|
-----2-----------4-------|-----2-----------4-------||*-------2----2--2--x--2--|
--3-----------5----------|--3-----------5----------||--------2----2--2--x--2--|
-------------------------|-------------------------||---0----0----0--0--x--0--|


     ^  ^                                                                       
  E  E  E  Q    Q    E   4x  Q.     E  E  E  E  E     E  E  E  Q    E   E   E   
--L----------------------||--3---------2--------3--|-----------2----2s--3s--2--|
--L----------------------||--1---------------------|---------------------------|
--L---------------------*||---------2-----2--2-----|--------2------------------|
--L--2--2---------------*||------------------------|-----2---------------------|
--L--2--2--4----3----2---||--0---------------------|--0------------------------|
--L--0--0----------------||------------------------|---------------------------|


  Q    E  Q.     Q       E  E  E  Q    Q.        Q.     E  E  E  E  E   
--0-------------------|-----------3-----------|--3---------2--------3--|
----------0------L----|--------0-------0------|--1---------------------|
----------------------|-----------------------|---------2-----2--2-----|
-------2--------------|-----2-----------------|------------------------|
----------------------|-----------------------|--0---------------------|
--0-------------------|--0--------------------|------------------------|


                                      3  3                   
  E  E  E  Q    E   E   E     Q    E  S  H         E    E    
-----------2----2s--3s--2--|--0-------3s-5--------12--------|
---------------------------|--------------------------------|
--------2------------------|-------0------------------(11)--|
-----2---------------------|--------------------------------|
--0------------------------|--------------------------------|
---------------------------|--0-----------------------------|


    Q.      E  E  E  E  E     E  E  E  E  T  S. E  E  E   
------------0--3--5--3--2--|--------------------3--5--0--|
------------0--------------|--------1--3--3s-5-----------|
--(12)---------------------|-----2--------------------0--|
---------------------------|-----------------------------|
---------------------------|--0-----------------------3--|
----0----------------------|-----------------------------|


  E  E  E  E  E  T  E  S. E     E  E  E  E  T  S. E  E  E   
--L--3--3--2--3--3s-5--L--0--|--------------------3--5--0--|
-----------------------------|--------1--3--3s-5-----------|
--L--------------------------|-----2--------------------0--|
-----------------------------|-----------------------------|
--L--------------------------|--0-----------------------3--|
-----------------------------|-----------------------------|


  E  E  E  E  E  Q    E     E  E  E  E  T  S. E  E  E   
--L--3--3--2--3--3----0--|--------------------3--5--0--|
-------------------------|--------1--3--3s-5-----------|
--L-------------------2--|-----2--------------------0--|
-------------------------|-----------------------------|
--L----------------------|--0-----------------------3--|
-------------------------|-----------------------------|


  E  E  E  E  E  T  E  S. E     E  Q    E  E  E  E  E     H        Q    Q     
--L--3--3--2--3--3s-5--L-----|-------------------------|---------------------|
--------------------------0--|-------------------------|--3--------5----3----|
--L--------------------------|-------------2-----1--2--|--4--------5----4----|
-----------------------------|-----2----2-----2--------|---------------------|
--L--------------------------|-------------------------|---------------------|
-----------------------------|--0----------------------|--0--------0---------|


    E  E  E  E  E  E  E  E     E  E  E  E  E  E  E  E   
|---------3-----2-----3--5--|-----0--------------2-----|
|---------0-----------3-----|--------0-----------------|
|*-----0-----0-----2--------|-----------0--4--------4--|
|*--------------0-----------|-----------------4--------|
|---------------------------|--3-----------2-----------|
|---0-----------------------|--------------------------|


  E  E  E   E  E  E  E  E     E  E  E  E  E  E  E   E   
--3-----2h--3--------3--2--|--0--------0---------------|
--------0------3-----3-----|--------0-----4-----2h--4--|
-----0------------2--------|-----0--------------2------|
---------------0-----------|-----------------4---------|
---------------------------|--3-----------2------------|
--0------------------------|---------------------------|


  E  E  E  E  E  E  E  E     E  E  E  E  E  E  E  E   
--0-----3-----2-----3--5--|-----0--------------2-----|
--------0-----------3-----|--------0-----------------|
-----0-----0-----2--------|-----------0--4--------4--|
--------------0-----------|-----------------4--------|
--------------------------|--3-----------2-----------|
--0-----------------------|--------------------------|


  E  E  E   E  E  E  E  E     E  E  E  E  E  E  E   E   
--3-----2h--3--------3--2--|--0--------0---------------|
--------0------3-----3-----|--------0-----4-----2h--4--|
-----0------------2--------|-----0--------------2------|
---------------0-----------|-----------------4---------|
---------------------------|--3-----------2------------|
--0------------------------|---------------------------|


  E  E  E  E  E  E  E  E     E  E  E  E  E  E  E  E   
--0-----3-----2-----3--5--|-----0--------------2-----|
--------0-----------3-----|--------0-----------------|
-----0-----0-----2--------|-----------0--4--------4--|
--------------0-----------|-----------------4--------|
--------------------------|--3-----------2-----------|
--0-----------------------|--------------------------|


  E  E  E  E  E  E  E  E     E  E  E  E  E  E  E  E     E  Q.     E  E  E  E   
--0-----------0-----0--2--|--3--------0--3--0--3--5--|-----0------2-----3--5--|
-----------0-----0--------|--------0-----------------|------------------3-----|
--------0-----------------|-----0--------------------|---------------2--------|
-----2--------0-----------|--------------------------|------------0-----------|
--------------------------|--3-----------2-----------|------------------------|
--0-----------------------|--------------------------|--0---------------------|


  E  E  E  E  E  E  E  E     E  E  E  E  E  E  E  E   
-----0--------------2-----|--0-----------0-----0--2--|
--------0-----------------|-----------0-----0--------|
-----------0--4--------4--|--------0-----------------|
-----------------4--------|-----2--------0-----------|
--3-----------2-----------|--------------------------|
--------------------------|--0-----------------------|


  E  E  E  E  E  E  E  E     E  H.           S  S    Q.     S  S Q    Q     
--3--------0--3--0--3--5--|-----0------------2h-3-|--5------3p-2-0---------|
--------0-----------------|-----------------------|-------------------0----|
-----0--------------------|-----------------------|------------------------|
--------------------------|-----------------------|------------------------|
--3-----------2-----------|--3--------------------|--3-----------3---------|
--------------------------|-----------------------|------------------------|


  E  E  E  E  E  E  E  E     E  E  E  E  T  S. S E  S E   
--------------------------|------------------------------|
--------------------------|------------------------------|
--------0-----------0-----|--------0--7--------0----0----|
-----2-----2-----4-----4--|-----5--------5h-7----5----4--|
--3-----------5-----------|--7------------------------5--|
--------------------------|------------------------------|


  E  E  E  E  E  E  E  E     E  E  E  E  T  S. S E.  S  S  
--------------------------|--------------------------0h-2-|
--------------------------|-------------------------------|
--------0-----------0-----|--------0--7--------0----------|
-----2-----2-----4-----4--|-----5--------5h-7----5--------|
--3-----------5-----------|--7----------------------------|
--------------------------|-------------------------------|


  E  E  E  S  S E  E  E  S  S    E  E  E  H        S  S  
--3--------2p-0----------0h-2-|--0-----------------0h-2-|
----------------3-------------|-----------3-------------|
------------------------------|--------0----------------|
--------2-------------4-------|-----2-------------------|
-----3-------------5----------|-------------------------|
------------------------------|-------------------------|


  E  E  E  S  S E  E  E  S  S    E  E  E  S  S E  E  Q     
--3--------2h-3-5--------3p-2-|--0--------2h-3-2----------|
------------------------------|---------------------------|
------------------------------|----------------------0----|
--------2-------------4-------|--------2----------0-------|
-----3-------------5----------|-----3---------------------|
------------------------------|---------------------------|


  E  E  E  S  S E  E  E  E     E  E  E  Q    E  E  E   
----------------------------|-------------------------|
-----------3s-5-------0-----|-----0-------------------|
--------0----------4-----2--|-----------0----------0--|
-----2----------0-----------|--------2----------4-----|
--3-------------------------|----------------2--------|
----------------------------|--0----------------------|


  E  E  E  E  E  E  Q       E  E  E  Q    Q    E     E  E  E  E  E  E  E  E   
-------------------------|------------------------|--0-----------2-----------|
--------0----------------|-----------3----0-------|--------------------3-----|
-----------2-----2-------|--0--------0------------|--------0--------2-----2--|
-----2--------0-----2----|--------2------------0--|-----2-----2--0-----------|
--3----------------------|-----2------------------|--3-----------------------|
-------------------------|--0---------------------|--------------------------|


  E  E  E  Q    E  Q       E  E  E  E  E  E  E  E     E  E  E  E  E  E  Q     
--3----------------7----|--0-----------------------|--0-----------2----------|
-----------0----5-------|--------------3-----------|--------------------3----|
--------0---------------|--------0-----------0-----|--------0--------2-------|
-----2-------------0----|-----2-----2-----4-----4--|-----2-----2--0----------|
------------------------|--3-----------5-----------|--3----------------------|
--0---------------------|--------------------------|-------------------------|


       ^    ^  ^  ^  ^        ^  ^                         ^    ^  ^  ^  ^   
  Q    Q    E  E  E  E     E  E  E  Q    Q    E       Q    Q    E  E  E  E   
---------------------2--|--L---------------------||----------------------2--|
--0------------------0--|--L---------------------||----------------------0--|
---------------------0--|--L---------------------||*---------------------0--|
-------2----2--2--x--2--|--L--2--2---------------||*-------2----2--2--x--2--|
-------2----2--2--x--2--|--L--2--2--4----3----2--||--------2----2--2--x--2--|
--0----0----0--0--x--0--|--L--0--0---------------||---0----0----0--0--x--0--|


     ^  ^                         ^    ^  ^  ^  ^                       
  E  E  E  Q    Q    E       Q    Q    E  E  E  E     W                 
--L----------------------||---------------------2--|--L----------------|
--L----------------------||---------------------0--|--L----------------|
--L---------------------*||---------------------0--|--L----------------|
--L--2--2---------------*||-------2----2--2--x--2--|--L----------------|
--L--2--2--4----3----2---||-------2----2--2--x--2--|--L----------------|
--L--0--0----------------||--0----0----0--0--x--0--|--L----------------|


  W                  
--L----------------||
--L----------------||
--L----------------||
--L----------------||
--L----------------||
--L----------------||




Duration Legend
---------------
W - whole
H - half
Q - quarter
E - 8th
S - 16th
T - 32nd
X - 64th
. - note dotted
|-n-|  - n-tuplets


Tablature Legend
----------------
L - tied note
x - dead note
(n) - ghost note (optional)
h - hammer on
p - pull off
s - legato slide
\ -  slide into from above or out of downwards
^ - brush up
Login or Register to remove this ad.