Ads

Theme of Laura (Silent Hill 2) Guitar Tab

Submitted: Nov 10, 2019 by Daniks004 (Last updated: Nov 16, 2019)

5
Average: 5 (1 vote)
Download | Listen
Game: Silent Hill 2
Composer(s): Akira Yamaoka
Style: 2 or more instruments, Alternate picking

AutoScroll: Slow | Medium | Fast
Theme Of Laura
Silent Hill 2
Compuesta por Akira Yamaoka
Tab de Daniks004
Afinación estándar (E A D G B e)
Este es un recopilatorio de lo que encontré por internet del soundtrack,
intenté hacer la tablatura lo más completa posible. Para no perderse 
y entender mejor los punteos, guíense del soundtrack, así será mas fácil 
sacarlo.

/ = Slide en subida
\ = Slide en bajada
b = Bending
r = Release
h = Hammer On
p = Pull Off
v = Vibrato
//= Alternate Picking


Intro:
e|--------------------------------------------------------|
B|--0--0-0-0--0-0-0-0-0-0--0-0-0-0-0--0-0-0-0-0-0--0-0-0--|
G|--0--0-0-0--0-0-0-0-0-0--0-0-0-0-0--0-0-0-0-0-0--0-0-0--| x 3
D|--2--2-2-2--2-2/4-4-4-4--4-4/5-5-5--5-5-5/7\5-5--4-4-4--|
A|--3--3-3-3--3-3/5-5-5-5--5-5/7-7-7--7-7-7/9\9-9--5-5-5--|
E|--------------------------------------------------------|

e|-----------------------------------------------|
B|--0-0-0--0-0-0-0-0--0-0--0-0-0--0-0-0-0-0-0-0--|
G|--0-0-0--0-0-0-0-0--0-0--0-0-0--0-0-0-0-0-0-0--|
D|--2-2-2--2-2/4-4-4--4-4--2-2-2--2-2-2/4-4-4-4--|
A|--3-3-3--3-3/5-5-5--5-5--3-3-3--3-3-3/5-5-5-5--|
E|-----------------------------------------------|


*Punteo sobre la tercera vuelta/final del intro:
e|-----0-----0-----2-----2-----3-----3--2--0-----7-----7-----5-0-----7-----7--|
B|--0-----0-----0-----0-----0-----0-----------0-----0-----0-------0-----0-----|
G|----------------------------------------------------------------------------|
D|----------------------------------------------------------------------------|
A|----------------------------------------------------------------------------|
E|----------------------------------------------------------------------------|


Riff eléctrico principal:
e|---------------------------------------------------|
B|-----------3/5-----------------------------3-------|
G|---------0-----4--2-2/4-0-------4-2----------4-----|
D|------2---------------------4-5------2-2/5---------|
A|--/3-----------------------------------------------|
E|---------------------------------------------------|

e|-----------------------------------------------|
B|-----------3/5-----------------------3-3/5-----|
G|---------0-----4--2-2/4-0-------4-2--------4---|
D|------2---------------------4-5----------------|
A|---3-------------------------------------------|
E|-----------------------------------------------|


*Punteo con "Alternate Picking" sobre la segunda parte del Riff principal:
e|--12---14---15----19---12---10---12---14--|
B|--//---//---//----//---//---//---//---//--|
G|--//---//---//----//---//---//---//---//--|
D|------------------------------------------|
A|------------------------------------------|
E|------------------------------------------|


Segundo Riff eléctrico:
e|------------2--(2)-----------|
B|------------0--(0)-----------|
G|------------0--(0)-----------| x 4
D|------------2--(2)-----------|
A|------------2--(2)--4--3--2--|
E|--0--(0)---------------------|


Minuto 1:00 de la canción:
e|----------------------------|
B|--------8--7--7h8p7--/5-0---|
G|----------------------------|
D|--/7-7----------------------|
A|----------------------------|
E|----------------------------|

e|-------------------------------12--------|
B|--------8--7-7/10-8-7\5--5/10-----11/12--|
G|-----------------------------------------|
D|--/7-7-----------------------------------|
A|-----------------------------------------|
E|-----------------------------------------|


Minuto 1:18          (Melodía de la otra guitarra)
e|-------------------|---------------------------|
B|----------8-10-----|------8-8-7-8-8/10---------|
G|------5-/9------9--|--------------------9------|
D|--5/7--------------|---------------------------|
A|-------------------|---------------------------|
E|-------------------|---------------------------|

Minuto 1:23          (Melodía de la otra guitarra)
e|-------------------|---------------------------|
B|----------8-10-----|------8-8-7-8-8------------|
G|------5-/9------9--|-----------------9---------|
D|--5/7--------------|---------------------------|
A|-------------------|---------------------------|
E|-------------------|---------------------------|

Minuto 1:23          (Melodía de la otra guitarra)
e|-------------------|--------------------------|
B|----------8-10-----|----8-8-7-8-8/10--10/12v--|
G|------5-/9------9--|--------------------------|
D|--5/7--------------|--------------------------|
A|-------------------|--------------------------|
E|-------------------|--------------------------|
 
Minuto 1:33        
e|-------------------------------------|
B|----------9-------10------12---------|
G|---(9)-/9---9--/9----9-/9----9-------|
D|-------------------------------------|
A|-------------------------------------|
E|-------------------------------------|

Minuto 1:38         
e|----------------------------------------------------------------|
B|---8-8-8-7-7-8-8/10---------7---8-8-7-8----8-7-5--0-5-4-2-4-5v--|
G|--------------------9-------------------9-----------------------| x4
D|-----------------------/9-9---9---------------------------------|
A|----------------------------------------------------------------|
E|----------------------------------------------------------------|

Violín en el minuto 2:15         
e|------12v---14-15-17--15-14-12\8-12v---|
B|---------------------------------------|
G|---------------------------------------| 
D|---------------------------------------|
A|---------------------------------------|
E|---------------------------------------|

Minuto 2:19        
e|------------------------------|
B|------------------------------|
G|----------------------7--4----| x3
D|------0------0----------------|
A|----2/-----4/-----5-----------|
E|--3/-----5/-----7---7---------|

Minuto 2:33    
e|------------------------------|
B|------------------------------|
G|------------------------------|
D|------0------0------0------0--|
A|----2/-----4\-----2/------4---|
E|--3/-----5\-----3/------5-----|

Violín durante el minuto 2:28
e|----------------------------------------------------------|
B|-----7-8v--7--------7--------7-8--7-8-8/10--8-7---7b8r7v--|
G|---9--------9-7v--9---9v---9--------------------9---------| 
D|----------------------------------------------------------|
A|----------------------------------------------------------|
E|----------------------------------------------------------|

* En el min. 2:38 vuelve a hacer los 2 primeros Riff, para acabar en el último.
Login or Register to remove this ad.