Ads

Promise (Silent Hill 2) Guitar Tab

Submitted: Apr 20, 2011 by carloscos

3
Average: 3 (1 vote)
Download | Listen
Game: Silent Hill 2
Composer(s): Akira Yamaoka
Style: 2 or more instruments, Transcription

AutoScroll: Slow | Medium | Fast
Guitarra Solista:

(***Guitarra rítmica***)

e|-10-12---15---------12---8-----|
B|------------13---10--------8---|
G|-------------------------------|
D|-------------------------------|
A|-------------------------------|
E|-------------------------------|

e|-----------------------------------------------------------------|
B|-----------------------------------------------------13-13-12----|
G|-9/12-12-12-12-10-9------------------12-12-12-14-12-----------12-|
D|---------------------12-12-14-12-10------------------------------|
A|-----------------------------------------------------------------|
E|-----------------------------------------------------------------|

e|--------------------------------------------------------------|
B|-----------------------------------------------13-13-13-12-13-|
G|-12-12-12-10-9------------------12-12-12-14-12----------------|
D|----------------12-12-14-12-10--------------------------------|
A|--------------------------------------------------------------|
E|--------------------------------------------------------------|

e|--------------------------------------------------------|
B|-12-10-12-13-15-13-12-13-12-10-12-13-12-13-15-13-15-17--|
G|--------------------------------------------------------|
D|--------------------------------------------------------|
A|--------------------------------------------------------|
E|--------------------------------------------------------|

e|-----------------------------------------------------------------|
B|-13-12-10-12-13-15-13-12-13-12-10-12-13-10-12-13-15-13-15-17-----|
G|--------------------------------------------------------------14-|
D|-----------------------------------------------------------------|
A|-----------------------------------------------------------------|
E|-----------------------------------------------------------------|

(***Guitarra rítmica***)

e|-10-12---15---------12---8-----|
B|------------13---10--------8---|
G|-------------------------------|
D|-------------------------------|
A|-------------------------------|
E|-------------------------------|

_________________________________________________________________________

Guitarra rítmica:

e|--------------------------------------|           
B|-----1--------1--------1--------0-----|
G|---------------------0---0----0---0---|
D|---2---2----3---3-----------0---------|
A|-0--------0--------3------------------|
E|--------------------------------------| x infinito
Login or Register to remove this ad.