Ads

Kimi wo Omou Merodii (Shuffle!) Guitar Tab

Submitted: May 28, 2013 by max

5
Average: 5 (1 vote)
Download | Listen
Game: Shuffle!
Composer(s): Kazuhiko Sawaguchi, Minoru Maruo
Style: Arrangement, Fingerstyle

AutoScroll: Slow | Medium | Fast
piano Sheet & Midi by http://josh.agarrado.net/music/anime/
Guitar Tab by Max Weber



Standard Tuning (EADGBE) Capo on 3. Fret

Speed 120

3/4

 |       |       |        |       |       |        |       |       |        
|--------9---------------|2-----------------------|--------7---------------|
|9-----------------------|------------------------|7---------------4-------|
|----------------9-------|------------------------|------------------------|
|------------------------|----------------1-------|------------------------|
|0-------0---------------|2-----------------------|------------------------|
|----0-------7---9-------|--------2---------------|0---7---0---2---4-------|
 
 |       |       |        |       |       |        |       |       |        
|0-----------------------|--------9---------------|--------------------7---|
|------------------------|9-----------------------|7-----------------------|
|------------------------|----------------9-------|------------------------|
|------------------------|------------------------|------------------------|
|4-----------------------|0-------0---------------|----------------6-------|
|--------4-------0-------|----0-------7---9-------|7-------2---------------|
 
 |       |       |        |       |       |        |       |       |        
|4-------------------2---|4-----------------------|--------9---------------|
|------------------------|2-----------------------|9-----------------------|
|------------------------|------------------------|----------------9-------|
|----------------1-------|------------------------|------------------------|
|4-------4-------4-------|4---------------4-------|0-------0---------------|
|----4-------4-----------|--------1---------------|----0-------7---9-------|
 
 |       |       |        |       |       |        |       |       |        
|2-----------------------|--------7---------------|0-----------------------|
|------------------------|7---------------4-------|------------------------|
|------------------------|------------------------|------------------------|
|----------------1-------|------------------------|------------------------|
|2-----------------------|------------------------|4-----------------------|
|--------2---------------|0---7---0---2---4-------|--------4-------0-------|
 
 |       |       |        |       |       |        |       |       |        
|--------9---------------|2---------------0-------|------------------------|
|9-----------------------|--------------------4---|2-----------------------|
|----------------9-------|------------------------|------------------------|
|------------------------|------------------------|----------------1-------|
|0-------0---------------|2---------------4-------|4-----------4---4-------|
|----0-------7---9-------|--------2---------------|----2---2---------------|
 
 |       |       |        
|------------------------|
|--------------------2---|
|------------------------|
|3-----------------------|
|4---------------4-------|
|--------1---------------|
 
 |       |       |        |       |       |        |       |       |        
|4---------------2-------|------------------------|------------------------|
|--------------------5---|4---------------2-------|------------------------|
|------------------------|--------------------4---|1-----------------------|
|------------------------|----------------1-------|--------------------4---|
|----------------4-------|2-----------------------|--------2---------------|
|5-------0---------------|--------2---------------|0---------------4-------|
 
 |       |       |        |       |       |        |       |       |        
|------------------------|4---------------2-------|----------------7-------|
|----------------2-------|--------------------5---|4-----------------------|
|1-----------------------|------------------------|------------------------|
|------------------------|------------------------|------------------------|
|4-----------------------|----------------4-------|----------------6-------|
|--------4-------0-------|5-------0---------------|7-------2---------------|
 
 |       |       |        |       |       |        |       |       |        
|4-------------------2---|4-----------------------|4---------------2-------|
|------------------------|----------------2-------|--------------------5---|
|------------------------|------------------------|------------------------|
|------------------------|------------------------|------------------------|
|4---------------4-------|4---------------4-------|----------------4-------|
|--------4---------------|--------1---------------|5-------0---------------|
 
 |       |       |        |       |       |        |       |       |        
|------------------------|------------------------|------------------------|
|4---------------2-------|------------------------|----------------2-------|
|--------------------4---|1-----------------------|1-----------------------|
|----------------1-------|--------------------4---|------------------------|
|2-----------------------|--------2---------------|4-----------------------|
|--------2---------------|0---------------4-------|--------4-------0-------|
 
 |       |       |        |       |       |        |       |       |        
|4---------------2-------|------------------------|------------------------|
|--------------------5---|4---------------2-------|2-----------------------|
|------------------------|--------------------4---|------------------------|
|------------------------|------------------------|------------------------|
|----------------4-------|2---------------4-------|4---------------4-------|
|5-------0---------------|--------2---------------|--------4---------------|
 
 |       |       |        
|------------------------|
|------------------------|
|------------------------|
|------------------------|
|4---------------4-------|
|--------1---------------|
 
 |       |       |        |       |       |        |       |       |        
|--------9---------------|2-----------------------|--------7---------------|
|9-----------------------|------------------------|7---------------4-------|
|----------------9-------|------------------------|------------------------|
|------------------------|----------------1-------|------------------------|
|0-------0---------------|2-----------------------|------------------------|
|----0-------7---9-------|--------2---------------|0---7---0---2---4-------|
 
 |       |       |        |       |       |        |       |       |        
|0-----------------------|--------9---------------|--------------------7---|
|------------------------|9-----------------------|7-----------------------|
|------------------------|----------------9-------|------------------------|
|------------------------|------------------------|------------------------|
|4-----------------------|0-------0---------------|----------------6-------|
|--------4-------0-------|----0-------7---9-------|7-------2---------------|
 
 |       |       |        |       |       |        |       |       |        
|4-------------------2---|4-----------------------|--------9---------------|
|------------------------|2-----------------------|9-----------------------|
|------------------------|------------------------|----------------9-------|
|----------------1-------|------------------------|------------------------|
|4-------4-------4-------|4---------------4-------|0-------0---------------|
|----4-------4-----------|--------1---------------|----0-------7---9-------|
 
 |       |       |        |       |       |        |       |       |        
|2-----------------------|--------7---------------|0-----------------------|
|------------------------|7---------------4-------|------------------------|
|------------------------|------------------------|------------------------|
|----------------1-------|------------------------|------------------------|
|2-----------------------|------------------------|4-----------------------|
|--------2---------------|0---7---0---2---4-------|--------4-------0-------|
 
 |       |       |        |       |       |        |       |       |        
|--------9---------------|2---------------0-------|------------------------|
|9-----------------------|--------------------4---|2-----------------------|
|----------------9-------|------------------------|------------------------|
|------------------------|------------------------|----------------1-------|
|0-------0---------------|2---------------4-------|4-----------4---4-------|
|----0-------7---9-------|--------2---------------|----2---2---------------|
 
 |       |       |        
|------------------------|
|--------------------2---|
|------------------------|
|3-----------------------|
|4---------------4-------|
|--------1---------------|

 |       |       |        |       |       |        |       |       |        
|4---------------2-------|------------------------|------------------------|
|--------------------5---|4---------------2-------|------------------------|
|------------------------|--------------------4---|1-----------------------|
|------------------------|----------------1-------|--------------------4---|
|----------------4-------|2-----------------------|--------2---------------|
|5-------0---------------|--------2---------------|0---------------4-------|
 
 |       |       |        |       |       |        |       |       |        
|------------------------|4---------------2-------|----------------7-------|
|----------------2-------|--------------------5---|4-----------------------|
|1-----------------------|------------------------|------------------------|
|------------------------|------------------------|------------------------|
|4-----------------------|----------------4-------|----------------6-------|
|--------4-------0-------|5-------0---------------|7-------2---------------|
 
 |       |       |        |       |       |        |       |       |        
|4-------------------2---|4-----------------------|4---------------2-------|
|------------------------|----------------2-------|--------------------5---|
|------------------------|------------------------|------------------------|
|------------------------|------------------------|------------------------|
|4---------------4-------|4---------------4-------|----------------4-------|
|--------4---------------|--------1---------------|5-------0---------------|
 
 |       |       |        |       |       |        |       |       |        
|------------------------|------------------------|------------------------|
|4---------------2-------|------------------------|----------------2-------|
|--------------------4---|1-----------------------|1-----------------------|
|----------------1-------|--------------------4---|------------------------|
|2-----------------------|--------2---------------|4-----------------------|
|--------2---------------|0---------------4-------|--------4-------0-------|
 
 |       |       |        |       |       |        |       |       |        
|4---------------2-------|------------------------|------------------------|
|--------------------5---|4---------------2-------|2-----------------------|
|------------------------|--------------------4---|------------------------|
|------------------------|------------------------|------------------------|
|----------------4-------|2---------------4-------|4---------------4-------|
|5-------0---------------|--------2---------------|--------4---------------|
 
 |       |       |        
|------------------------|
|------------------------|
|------------------------|
|3-----------------------|
|4-----------------------|
|4-----------------------|
Login or Register to remove this ad.