Ads

Ugoku, Ugoku (Shoujo Shuumatsu Ryokou) Guitar Tab

Submitted: Jan 01, 2018 by JordanVS (Last updated: Jan 01, 2018)

5
Average: 5 (5 votes)
Download | Listen
Game: Shoujo Shuumatsu Ryokou
Composer(s): Kenichiro Suehiro
Style: Arrangement, Fingerstyle

This song is also called Opening Theme

AutoScroll: Slow | Medium | Fast
Ugoku, Ugoku                                             
Opening Theme
Girls' Last Tour / Shoujo Shuumatsu Ryokou
Inori Minase & Yurika Kubo
kegani & Tomggg
JordanVS

*Capo on the 3rd fret
Tempo: 128 ~ 4/4



     E  E  S S S E  E  E.  E     Q    S  S E  H           E  E  S S S E  E  E.  E   
E||--------2------------------|------------------------|--------2------------------|
B||---------------------------|------------------------|--------------------2---4--|
G||--4-----------4-----3---4--|-------3h-4-------------|--4-----------4-----3---4--|
D||--4-------4----------------|------------4-----------|--4-------4----------------|
A||---------------------------|------------------------|---------------------------|
E||--0-----------------2---4--|------------------------|--0-----------------2---4--|


  Q    S  S E  H           E  E  S S S E  S S E.  E     Q    S  S E  E  E  E  E   
------------------------|--------2-------------------|------------------------0--|
-------2h-4-------------|--4-------------------------|---------------0--2--4-----|
------------4-----------|--4-----------4------3---4--|-------3h-4----------------|
------------------------|--4-------4-----------------|------------4--------------|
------------------------|----------------------------|---------------------------|
------------------------|--0------------------2---4--|---------------------------|


  E  E  S S S E  S S E.  E     Q    S  S E    E  E  S S  E     E  E  S S S E  S S E.  E   
--------2-------------------|-------------------------------|--------2-------------------|
--4------------------2------|-------------------------------|--4-------------------------|
--4-----------4------3---4--|-------6h-8-4------------------|--4-----------4------3---4--|
--4-------4-----------------|--------------------4----------|--4-------4-----------------|
----------------------------|---------------4g6-----6-4s-2--|---------------------4---6--|
--0------------------2---4--|-------------------------------|--0------------------2---4--|


  Q    S  S E  E  E  E  E     E  E  S S S E  S S E.  E     H        E  E  E  E   
------------------------0--|--------2-------------------|-----------------------|
---------------0--2--4-----|--4------------------2------|-----------0--2--0-----|
-------3h-4----------------|--4-----------4----------4--|-----------------------|
------------4--------------|--4-------4-----------------|-----------------------|
---------------------------|----------------------------|-----------------------|
---------------------------|--0------------------2---4--|-----------------------|


  E  S S S S E  E  S S E  E     E  S S E  E  E  S S E  E     E  S S E  S S E  S S E  E   
-----------------------------|----------------------------|-----------------------------|
-----4-4-4-4-4--4------------|-----4-4-4--4--4------------|-----4-4-4--4-4-4------------|
--4----------------4-3----4--|--L---------------4-4-------|--4----------------4-3----4--|
--4--------------------------|----------------------------|--4--------------------------|
-----------------------------|----------------------------|-----------------------------|
--0-------------0----2-L--4--|--L------------4----4-L-----|--0-------------0----2-L--4--|


  E  E  E  E  E  E  E  E     E  S S S S E  E  S S E  E     E  S S S S E  E  S S E  E   
--------------------------|-----------------------------|-----------------------------|
--------------------------|-----4-4-4-4-4--4------------|-----4-4-4-4-4--4------------|
--4--6--4-----4--6--4-----|--4--4-4-4-4-4--4--4-3----4--|--L--4-4-4-4-4--4--4-4-------|
--------------------------|--4--------------------------|-------------------4-4-------|
--------------------------|-----------------------------|-----------------------------|
--L-----------4-----------|--0-------------0----2-L--4--|--L-------------4----4-L-----|


                                                           ^                    
  E  S S E  S S E  S S E  E     E  E  E  E  E  E  E  E     H        E  Q    E   
-----------------------------|--------------------------|--2--------L--0-------|
-----4-4-4--4-4-4------------|--------------------------|--4--------L-------4--|
--4--4-4-4--4-4-4--4-3----4--|--4--6--4-----4--6--4-----|--4--------L----------|
--4--------------------------|--------------------------|----------------------|
-----------------------------|--------------------------|----------------------|
--0-------------0----2-L--4--|--L-----------4-----------|--0-------------------|


                           ^                                                                       
  Q.     E  E  E  E  E     E  Q    Q    E  Q       Q.     E  E  E  E  E     Q    Q    E  E  E  E   
------------------------|--0--------------------|------------------------|--2---------L--0--------|
--0------------0--2--4--|--0--4----0-------2----|--0---------------0--2--|--4---------L--0-----4--|
------------------------|--1------------3-------|---------------3--------|--4---------L--------4--|
--2------2--2-----------|--1--------------------|--1------1--1-----------|------------------------|
------------------------|-----------------------|------------------------|--4----4----4-----4-----|
------------------------|-----------------------|------------------------|------------------------|


  Q    Q    E  E  E  E     E  E  E  E  E  E  E  E     E  E  E  E  E  E  E  E   
------------------------|--------------------------|--2--2--2--2--------0-----|
------------------------|--4-----------------7-----|--2--2--2--2-----3-----3--|
--4---------------4--6--|--4--6-----4-----4--------|--3--3--3--3--------------|
--4------------8--------|--6-----------------------|--------------------------|
--6----6----6-----6-----|--------------------------|--------------------------|
------------------------|--0--0--0--0--0--0--0--0--|--2--2--2--2--------------|


  Q    Q    Q    E  E     E  E  E  E  E  E  E  E     E  S S E  E  E  S S E  E   
--5----5----5----3--2--|--0-----0--2-----2--0-----|-----2-0----------2-0-------|
--3----3----2----2-----|-----3-----------------3--|--3----0----3--3---------3--|
--4----4----2----2-----|--------------------------|--4------------2------------|
-----------------------|--4-----4-----------------|----------------------------|
------------0----0-----|--2-----2-----2-----2-----|---------------0------0-----|
--3----3---------------|--------------------------|--3------3------------------|


  E  E  E  E  E  E  E  E     Q    Q    Q    E  E     E  E  E  E  E  E  E  E   
-----------0-----3--2-----|--5----5----5----3--2--|--0-----0--2-----2--0-----|
--3-----3--------------3--|--3----3----2----2-----|-----3-----------------3--|
-----2--------------------|--4----4----2----2-----|--------------------------|
--0-----0-----0-----0-----|-----------------------|--4-----4-----------------|
--------------------------|------------0----0-----|--2-----2-----2-----2-----|
--------------------------|--3----3---------------|--------------------------|


  E  S S E  E  E  S S E  E     E.  E.  E  E  E  E  E     Q    Q    Q    E  E   
-----2-0----------2-0-------|-------------------0-----|--5----5----5----3--2--|
--3----0----3--3---------3--|--3---3---3--3--3-----3--|--3----3----2----2-----|
--4------------2------------|--2---2---2--2-----------|--4----4----2----2-----|
----------------------------|--4---4---4--4-----------|-----------------------|
---------------0------0-----|--5---5---5--5-----------|------------0----0-----|
--3------3------------------|-------------------------|--3----3---------------|


  E  E  E  E  E  E  E  E     E  S S E  E  E  S S E  E     E  E  E  E  E  E  E  E   
--0-----0--2-----2--0-----|-----2-0----------2-0-------|-----------0-----3--2-----|
-----3-----------------3--|--3----0----3--3---------3--|--3-----3--------------3--|
--------------------------|--4------------2------------|-----2--------------------|
--4-----4-----------------|----------------------------|--0-----0-----0-----0-----|
--2-----2-----2-----2-----|---------------0------0-----|--------------------------|
--------------------------|--3------3------------------|--------------------------|


  Q    Q    E  E  E  E     E  E  E  E  E  E  E  E     Q    Q    Q    Q       E.  E.  E  Q    Q     
--5----5----5--7--------|-----0--3--2-----2--0-----|-------2----5---------|-----------------------|
--3----3----5-----7--5--|--3--------------------3--|--3----3----5----2----|--3---3---3--3----2----|
--4----4----6-----------|--------------------------|--4----4----6----2----|--2---2---2--2---------|
------------------------|--------------------------|----------------------|--4---4---4--4---------|
------------0-----0-----|--1-----1-----2-----2-----|------------0----0----|--5---5---5--5---------|
--3----3----------------|--------------------------|--3----3--------------|-----------------------|


  E  E  S S S E  E  E.  E     Q    S  S E  H           E  E  S S S E  E  E.  E    
--------2------------------|------------------------|--------2------------------||
---------------------------|------------------------|--------------------2---4--||
--4-----------4-----3---4--|-------3h-4-------------|--4-----------4-----3---4--||
--4-------4----------------|------------4-----------|--4-------4----------------||
---------------------------|------------------------|---------------------------||
--0-----------------2---4--|------------------------|--0-----------------2---4--||




Duration Legend
---------------
W - whole
H - half
Q - quarter
E - 8th
S - 16th
T - 32nd
X - 64th
. - note dotted
|-n-|  - n-tuplets


Tablature Legend
----------------
L - tied note
x - dead note
g - grace note
(n) - ghost note
> - accentuded note
h - hammer on
p - pull off
S - shift slide
s - legato slide
^ - brush up
v - brush down
Login or Register to remove this ad.

2 comments on Ugoku, Ugoku

It's perfect!

5

Thanks!! I love this tab and this song too!

*Dabs*

5

*Dabs*