Ads

Nap Time (A Short Hike) Guitar Tab

Submitted: May 25, 2020 by tomkail2 (Last updated: Jun 14, 2020)

5
Average: 5 (4 votes)
Download | No audio :(
Game: A Short Hike
Composer(s): Mark Sparling
Style: Fingerstyle

Click here for a video example.

AutoScroll: Slow | Medium | Fast
Nap Time
3/4 timing
The recording sounds like a duet, with one guitar playing the bass notes and the other playing the tune. That would certainly make it easier to play, but it's lovely solo too!
Original can be heard here

e-------------------------------------------------
B-------------------------------------------------
G-------9-------9---10------9-7-9-----------------
D-----------------------7---------------10--------
A--10-------10----------------------10------10----
E---------8-----------8-----------8---------------


e-------------------------------------------------
B-------8-------8---10----------------------------
G---------------------------121012----------------
D-----------10----------10----------10--9---8-----
A--10-----7-----------8-----------7---------------
E-------------------------------------------------

e-------------------------------------------------
B-------10------10---12---10-------------------8--
G--------------------12-----121012-------------6--
D--10-------10-------12-------------10--9---8--7--
A---------8-----------8-----------7---7---7-------
E-------------------------------------------5-----


e---------------------------------------5---------
B-------8--6-----5------4---5-------5---5---------
G-------5--------4----------------3---3-3---------
D--7----7-----7--5--------------2-------2---------
A-------------------------------------------------
E----------------3------------0-------------------


e--------------------------------------(12)-------
B--5----8--6-----5--5---0---1----------(12)-------
G--------5----------4-------0----------(12)-------
D--------7-----7----3-------2---------------------
A---------------------------3----------(12)-------
E------------------3-----------------------8------
Login or Register to remove this ad.

1 comment on Nap Time

nice, thanks

nice, thanks