Kibou no Uta (Shokugeki no Souma) Guitar Tab

Submitted: Feb 16, 2018 by quinndangle2

5
Average: 5 (2 votes)
Download | Listen
Game: Shokugeki no Souma
Composer(s): Tatsuya Kato
Style: Arrangement, Fingerstyle

AutoScroll: Slow | Medium | Fast
Kibou no Uta
Shokugeki no Soma OP1
Composed: Ohama Kengo

EADF#BE (Lute Tuning)
Capo 2


    Q.    E   E   E   E   E     Q.    E   E   E   Q      Q.    E   E   E   Q      Q.    E   E   E   E   E
 E|-------------------0-------|-2-----2---2---0--------|-0-----0---7---5---4----|-5-----5---4---0---2---0---|
 B|-----------0---2-----------|-------------------3----|------------------------|---------------------------|
F#|-------3---------------3---|-0----------------------|------------------------|-0-------------------------|
 D|---------------------------|-0---------2------------|-----------3------------|-0---------2---------------|
 A|-0-------------------------|-----------2------------|-4---------4------------|-----------2-----------4---|
 E|---------------------------|------------------------|-5----------------------|-----------------------5---|


    S  S  Q    E   E   E   E   E     Q.    E   E   E   Q      Q.    E   E   E   Q
 E|-L------------------------------|-----------2---0--------|-0-----0---7---5---4----|
 B|----3p-2----2---0---2---3---2---|-------------------3----|------------------------|
F#|--------------------------------|-3-----3----------------|------------------------|
 D|----------------3---------------|-4---------2------------|-----------3------------|
 A|-L--------------4---------------|-5---------2------------|-4---------4------------|
 E|-L------------------------------|------------------------|-5----------------------|


    Q.    E   E   S  E   E     S    W        E   S  E   E   E.   E   E   E
 E|-5-----------------------------|--------|----------------------------------|
 B|-------2---0---2--3---2--------|--------|-----0--2---3---2----0------------|
F#|-0--------------------------3--|-L------|-3-----------------------3--------|
 D|-0---------2-------------------|--------|-0---------------------------2----|
 A|-----------2----------------4--|-L------|-0--------------2-----------------|
 E|----------------------------5--|-L------|----------------0-----------------|


    E   S  E   E   E.   E   Q       E   S  E   E   E.   S  E   E.     E   E   Q    H
 E|-------------------------------|---------------------------------|--------------------|
 B|-0----------0---0--------------|------------------------0--------|-2-------3----2-----|
F#|---------------------3---3-----|-0---2--3---0---2----3------0----|-----3--------3-----|
 D|-----2--2----------------------|-0-------------------------------|--------------2-----|
 A|-4--------------4--------------|-0--------------2----------------|-4------------0-----|
 E|-5--------------2--------------|----------------0----------------|-5------------------|


    E   S  E   E   Q    S  E   E     E   S  E   E   Q    S  S  E.     Q.    E   E   S  E   E   S
 E|-0---0--0-----------------------|-----0--0-----------------------|-----------------------------|
 B|------------2---0----L------0---|-2----------2-------------------|-------0---0---2-------------|
F#|----------------2----L--3-------|-3--------------3----L--0--2----|-3----------------0---2---3--|
 D|-0--------------2----L----------|-2--------------2---------------|-0------------------------2--|
 A|-0------------------------------|-0------------------------------|-0------------------------0--|
 E|----------------0----L----------|----------------2---------------|-----------0-----------------|


    E   E   E   E   Q    E   E     E   S  E   E   E.   E   E   E     E   S  E   E   E.   E   Q  
 E|-----------------0------------|---------------------------------|------------------------------|
 B|-------------0------------0---|-2---0--2---3---2----0---0-------|-0----------0-----------------|
F#|-L-------3------------3-------|-2--------------0------------0---|-0---0--0-------3----2---2----|
 D|-L---2------------------------|---------------------------------|----------------2-------------|
 A|-L----------------------------|-4-------------------------------|-2----------------------------|
 E|------------------------------|----------------2----------------|----------------0-------------|


    E   S  E   E   E.   E   E   E     H     E   E   E   E     Q.    E   E   E   E   E
 E|-----0--0-------2----0-----------|-----------------------|-------------------0-------|
 B|-2----------2---2--------3---2---|-0-----------------0---|-L---------0---2-----------|
F#|-2-------------------------------|-0-----3---0---0---1---|-L-----3---------------3---|
 D|---------------------------------|-------2-----------0---|-L-------------------------|
 A|-4-------------------------------|-2-----0---------------|---------------------------|
 E|----------------2----------------|-------------------3---|-L---------0---------------|


    Q.    E   E   E   Q      Q.    E   E   E   Q      Q.    E   E   E   E   E     S  S  Q    E   E   E   E   E
 E|-2-----2---2---0--------|-0-----0---7---5---4----|-5-----5---4---0---2---0---|-L------------------------------|
 B|-------------------3----|------------------------|---------------------------|----3--2----2---0---2---3---2---|
F#|-0----------------------|------------------------|-0-------------------------|--------------------------------|
 D|-0---------2------------|-----------3------------|-0---------2---------------|----------------3---------------|
 A|-----------2------------|-4---------4------------|-----------2-----------4---|-L--------------4---------------|
 E|------------------------|-5----------------------|-----------------------5---|-L------------------------------|


    Q.    E   E   E   Q      Q.    E   E   E   Q      Q.    E   E   S  E   E   S    W
 E|-----------2---0--------|-0-----0---7---5---4----|-5---------------------------|--------|
 B|-------------------3----|------------------------|-------2---0---2--3---2------|--------|
F#|-3-----3----------------|------------------------|-0------------------------3--|-L------|
 D|-4---------2------------|-----------3------------|-0---------2-----------------|--------|
 A|-5---------2------------|-4---------4------------|-----------2--------------4--|-L------|
 E|------------------------|-5----------------------|--------------------------5--|-L------|


Login or Register to remove this ad.

3 comments on Kibou no Uta

Nice improvement over the

5

Nice improvement over the previous version and good to see you posting tabs again!

Thanks man! finally graduated

Thanks man! finally graduated so i've got a bit more spare time after work these days, you'll see a few more tabs from me soon enough (once i remember how to tab properly lol) :)

Congrats on graduating :) I'm

Congrats on graduating :) I'm sure you'll have your mojo back in no time. Cheers!