Ads

Kibou no Uta (Shokugeki no Souma) Guitar Tab

Submitted: Oct 25, 2015 by quinndangle2

5
Average: 5 (4 votes)
Download | Listen
Game: Shokugeki no Souma
Composer(s): Tatsuya Kato
Style: Arrangement, Fingerstyle

This song is also called Opening Theme 1

AutoScroll: Slow | Medium | Fast
Kibou no Uta
Opening from Shokugeki no Souma
Composed by Ohama Kengo
Tabbed by Brent Quinn


Tempo = 90
Drop D tuning
4/4 Time


Highly recommend becoming familiar with the original song - the Midi file 
doesn't convey the 'feel' of the song nearly as well



   Q.    E   E   E   E   E     Q.    E   E   E   Q      Q.    E   E   E   Q      Q.    E   E   E   E   E
E|-------------------2-------|-4-----4---4------------|-2---------9---7---6----|-7-----7---6-------4---2---|
B|-----------2---4-----------|---------------7---5----|-------7----------------|---------------7-----------|
G|-------4---------------4---|-1----------------------|-----------0------------|---------------------------|
D|---------------------------|-2---------4------------|-1----------------------|-6---------4-----------1---|
A|-2-------------------------|-----------4------------|-2---------6------------|-7---------4-----------2---|
D|---------------------------|------------------------|------------------------|---------------------------|


   S  S  Q    E   E   E   E   E     Q.    E   E   E   Q      Q.    E   E   E   Q  
E|-L--0---------------------------|-----------4------------|-2---------9---7---6----|
B|-------4----4-------4---5---4---|-0-----0-------7---5----|-------7----------------|
G|----------------6---------------|-1----------------------|-----------0------------|
D|-L--------------5---------------|-2---------4------------|-1----------------------|
A|-L--------------6---------------|-----------4------------|-2---------6------------|
D|--------------------------------|------------------------|------------------------|


   Q.    E   E   S  E   E     S    W        E   S  E   E   E.     E   E   E     E   S  E   E   E.     E   Q
E|-7-----------------------------|--------|------------0----------------------|--------------------------------|
B|-------4-------4--5---4-----0--|-L------|-----2--4-------4------2-----------|-2------------------------------|
G|-----------6-------------------|--------|-4-------------------------4-------|------------6---6------4---4----|
D|-6---------4----------------1--|-L------|-------------------------------4---|-1---4--4-----------------------|
A|-7---------4----------------2--|-L------|-2--------------4------------------|-2--------------6---------------|
D|-------------------------------|--------|-2--------------4------------------|----------------6---------------|


   E   S  E   E   E.     S  E   E.     E   E   Q    H       E   S  E   E   Q       S  E   E
E|-----------------------------------|--------------------|-2---2--2--------------------------|
B|--------------------------2--------|-4-------5----4-----|------------4---2-------L------2---|
G|-1---3--4---1---3------4------1----|-----4--------4-----|---------------------------4-------|
D|-----------------------------------|-1------------------|-----------------------------------|
A|-2--------------4------------------|-2------------2-----|-----------------------------------|
D|-2--------------4------------------|--------------------|-2--------------4------------------|


   E   S  E   E   Q       S  S  E.     Q.    E   E   S  E   E   S    H.     E   E
E|-----2--2--------------------------|-----------------------------|----------------|
B|-4----------4----------------------|-------2---2---4-------------|------------2---|
G|----------------4-------L--1--3----|-4----------------1---3---4--|-L------4-------|
D|-----------------------------------|-----------------------------|----------------|
A|-2---------------------------------|-2------------------------2--|-L--------------|
D|----------------6------------------|-2---------4-----------------|----------------|


   E   S  E   E   E.   E   E   E     E   S  E   E   Q.   E   Q      E   S  E   E   E.   E   E   E 
E|------------0--------------------|------------------------------|-----2--2-------4----2-----------|
B|-4---2--4-------4----2---2-------|-2----------2-----------------|-4----------4------------5---4---|
G|-----------------------------1---|-----1--1-------4----3---3----|---------------------------------|
D|---------------------------------|------------------------------|---------------------------------|
A|-6-------------------------------|-4----------------------------|-6-------------------------------|
D|----------------6----------------|----------------4-------------|----------------6----------------|


   H         E   E   E   E     E.    E   E   E   E   E     Q.    E   E   E   Q
E|---------------------------|-------------------2-------|-4-----4---4------------|
B|-2---------------------2---|-L---------2---4-----------|---------------7---5----|
G|-----------4---1---1-------|-------4---------------4---|-1----------------------|
D|---------------------------|---------------------------|-2---------4------------|
A|-4---------2-----------0---|-L-------------------------|-----------4------------|
D|---------------------------|-----------4---------------|------------------------|


   Q.    E   E   E   Q      Q.    E   E   E   E   E     S  S  Q    E   E   E   E   E 
E|-2---------9---7---6----|-7-----7---6-------4---2---|-L--0---------------------------|
B|-------7----------------|---------------7-----------|-------4----4-------4---5---4---|
G|-----------0------------|---------------------------|----------------6---------------|
D|-1----------------------|-6---------4-----------1---|-L--------------5---------------|
A|-2---------6------------|-7---------4-----------2---|-L--------------6---------------|
D|------------------------|---------------------------|--------------------------------|

   Q.    E   E   E   Q      Q.    E   E   E   Q      Q.    E   E   S  E   E     S
E|-----------4------------|-2---------9---7---6----|-7-----------------------------|
B|-0-----0-------7---5----|-------7----------------|-------4-------4--5---4-----0--|
G|-1----------------------|-----------0------------|-----------6-------------------|
D|-2---------4------------|-1----------------------|-6---------4----------------1--|
A|-----------4------------|-2---------6------------|-7---------4----------------2--|
D|------------------------|------------------------|-------------------------------|

   W
E|--------|
B|-L------|
G|--------|
D|-L------|
A|-L------|
D|--------|




|Key|

W = Whole Note
H = Half
Q = Quarter
E = Eighth
S = Sixteenth
. = Dotted note
L = Sustain Note




Login or Register to remove this ad.