Ads

Down The River (Shinsekai Yori) Guitar Tab

Submitted: Aug 01, 2015 by scarecrowlol

5
Average: 5 (3 votes)
Download | Listen
Game: Shinsekai Yori
Composer(s): Shigeo Komori
Style: Arrangement, Fingerstyle

AutoScroll: Slow | Medium | Fast
Title: Down The River
SubTitle: Shinsekai Yori
Artist: Shigeo Komori
Tabber: Mitch Jackson
Tempo = 120
T/S = 4/4


     ^     v  ^     v                v  ^  v  ^     ^  v       ^     v  ^     v                v  ^  v  ^     ^  v   
     Q     E  Q     Q.            E  E  E  E  Q     E  E       Q     E  Q     Q.            E  E  E  E  Q     E  E
D |--0-----0--0-----0----------|--L--0--0--0--0-----0--0----|--0-----0--0-----0----------|--L--0--0--0--0-----0--0----|
A |--12----12-12----12---------|--L--12-12-12-12----12-12---|--12----12-12----12---------|--L--12-12-12-12----12-12---|
F |--14----14-14----14---------|--L--14-14-14-14----14-14---|--11----11-11----11---------|--L--11-11-11-11----11-11---|
C |--14-------14---------------|--------14----14----14------|--14-------14---------------|--------14----14----14------|
G |--0--------0----------------|--------0-----0-----0-------|--0--------0----------------|--------0-----0-----0-------|
C |----------------------------|----------------------------|----------------------------|----------------------------|

     ^     v  ^     v                v  ^  v  ^     ^  v       ^     v  ^     v                v  ^  v  ^     ^  v  
     Q     E  Q     Q.            E  E  E  E  Q     E  E       Q     E  Q     Q.            E  E  E  E  Q     E  E   
  |--9-----9--9-----9----------|--L--9--9--9--9-----9--9----|--9-----9--9-----9----------|--L--9--9--9--9-----9--9----|
  |--9-----9--9-----9----------|--L--9--9--9--9-----9--9----|--9-----9--9-----9----------|--L--9--9--9--9-----9--9----|
  |--11----11-11----11---------|--L--11-11-11-11----11-11---|--11----11-11----11---------|--L--11-11-11-11----11-11---|
  |--11-------11---------------|--------11----11----11------|--11-------11---------------|--------11----11----11------|
  |--0--------0----------------|--------0-----0-----0-------|--0--------0----------------|--------0-----0-----0-------|
  |----------------------------|----------------------------|----------------------------|----------------------------|

      
     E  E  E  E  E  E  E  E       E  E  E  E  E  E  E  E       E  E  E  E  E  E  E  E       E  E  E  E  E  E  E  E     
  |--------4--------4----------|--4--------4--------4-------|--------9--------9----------|--9--------9--------9-------|
  |-----2--------2--------2----|--------2--------2----------|-----7--------7--------7----|--------7--------7----------|
  |--4--------4--------4-------|-----4--------4--------4----|--9--------9--------9-------|-----9--------9--------9----|
  |--------2-----------2-------|--------2-----------2-------|--------7-----------7-------|--------7-----------7-------|
  |--0-----------0-------------|--0-----------0-------------|--0-----------0-------------|--0-----------0-------------|
  |----------------------------|----------------------------|----------------------------|----------------------------|

                                                          
     E  E  E  E  E  E  E  E       E  E  E  E  E  E  E  E       E  E  E  E  E  E  E  E       E  E  E  E  E  E  E  E     
  |--------4--------4----------|--4--------4--------4-------|--------9--------9----------|--9--------9--------9-------|
  |-----2--------2--------2----|--------2--------2----------|-----7--------7--------7----|--------7--------7----------|
  |--4--------4--------4-------|-----4--------4--------4----|--9--------9--------9-------|-----9--------9--------9----|
  |--------4-----------4-------|--------4-----------4-------|--------7-----------7-------|--------7-----------7-------|
  |--0-----------0-------------|--0-----------0-------------|--0-----------0-------------|--0-----------0-------------|
  |----------------------------|----------------------------|----------------------------|----------------------------|

        |-3-|                           v  ^  v                                                         v  ^     ^  v           
     E  S S S E  E  E  E  Q          E  E  E  E  E  E  E  E       Q     Q     E  E  E  E       E  E  E  E  Q     E  E
  |--0--2h3p2p0-----0-------------|-----0--0--0----------------|-----------------------0----|-----------0--0-----0--0----|
  |--0-----------3-----2----------|-----0--0--0-----------3----|--------------0-------------|-----2-----0--0-----0--0----|
  |-------------------------------|-----2--2--2--2--0----------|--------------------2-------|-----------2--2-----2--2----|
  |-------------------------------|--------2-----------4-------|-----------------2----------|--------------2-----2-------|
  |--0--------0-----0-----0-------|--0-----0-----0-----0-------|--0-----0-----0-----0-------|--0-----0-----0-----0-------|
  |-------------------------------|----------------------------|----------------------------|----------------------------|

     ^  |-3--|                           v  ^  v                      v  ^  v                            v  ^     ^  v      
     E  S S  S E  E  E  E  E  E       E  E  E  E  E  E  E  E       E  E  E  E  E  E  E  E       E  E  E  E  Q     E  E
  |--9------------0----------------|-----4--4--4----------------|-----4--4--4-----------4----|-----------4--4-----4--4----|
  |--9--9h10p9---------------------|-----2--2--2--2--------5----|-----2--2--2--3-----2-------|-----5-----2--2-----2--2----|
  |--11--------11----11-6-----6----|-----2--2--2-----4--2-------|-----2--2--2----------------|-----------2--2-----2--2----|
  |--11--------------------6-------|--------4-------------------|--------4--------4----------|--------------4-----4-------|
  |--0---------0-----0-----0-------|--0-----0-----0-----0-------|--0-----0-----0-----0-------|--0-----0-----0-----0-------|
  |--------------------------------|----------------------------|----------------------------|----------------------------|

                     
     E  E  E  E  E  E  E  E       E  E  E  E  E  E  E  E       E  E  E  E  E  E  E  E       E  E  E  E  E  E  E  E 
  |--------4--------4----------|--4--------4--------4-------|--------9--------9----------|--9--------9--------9-------|
  |-----2--------2--------2----|--------2--------2----------|-----7--------7--------7----|--------7--------7----------|
  |--4--------4--------4-------|-----4--------4--------4----|--9--------9--------9-------|-----9--------9--------9----|
  |--------2-----------2-------|--------2-----------2-------|--------7-----------7-------|--------7-----------7-------|
  |--0-----------0-------------|--0-----------0-------------|--0-----------0-------------|--0-----------0-------------|
  |----------------------------|----------------------------|----------------------------|----------------------------|
        
      ^                                                                 ^
      E  E  E  E  E  E  E  E       Q.       S S S  S S  S S  S S S      Q     E  E  E  E  E  E       Q     Q     S  S  S S  S  S S S
  ||--2--------------4--2-------|--2---------------------------12----|--12----10-8-----7----------|--------------14p12p10----------0---|
  ||--2--------------------5----|-----------7s9-10p9-10p9-10s12--12--|--12----------------10-8----|--10------------------10h12-7h10----|
  ||o-4-----4--2----------------|------------------------------------|--11------------------------|------------------------------------|
  ||o-4--4----------------------|------------------------------------|--0-------------------------|------------------------------------|
  ||--2-----2-----2-----2-------|--2---------------------------------|--0-------------------------|------------------------------------|
  ||----------------------------|------------------------------------|--0-----0-----0-----0-------|--0-----0-----0---------------------|

        |-3-|                                                        |-3-|
     E  S S S E  E  E  E  E  E       Q     E  E  E  E  Q          E  S S S E  E  E  E  E  E       E  S S S S S S S S S S S S S
  |-----5h7p5-4-----4-------------|----------------------------|--------------4--5-------------|-----5h7h9-0h5-0h4p0-----4---0----||
  |--------------7-----5----------|-----------------5----------|--------------------7-----5----|--L------------------0h2---2------||
  |--------------------------6----|--------6--4----------------|--6--4h6p4---------------------|---------------------------------o||
  |--4--------------------6-------|--------------7-------------|--7--------7-------------------|---------------------------------o||
  |--4----------------------------|----------------------------|--4----------------------------|----------------------------------||
  |--4--------4-----4-----4-------|--4-----4-----4-----4-------|--4--------4-----4-----4-------|----------------------------------||
                             
        |-3-|                           v  ^  v                                                         v  ^     ^  v           
     E  S S S E  E  E  E  Q          E  E  E  E  E  E  E  E       Q     Q     E  E  E  E       E  E  E  E  Q     E  E
  |--0--2h3p2p0-----0-------------|-----0--0--0----------------|-----------------------0----|-----------0--0-----0--0----|
  |--0-----------3-----2----------|-----0--0--0-----------3----|--------------0-------------|-----2-----0--0-----0--0----|
  |-------------------------------|-----2--2--2--2--0----------|--------------------2-------|-----------2--2-----2--2----|
  |-------------------------------|--------2-----------4-------|-----------------2----------|--------------2-----2-------|
  |--0--------0-----0-----0-------|--0-----0-----0-----0-------|--0-----0-----0-----0-------|--0-----0-----0-----0-------|
  |-------------------------------|----------------------------|----------------------------|----------------------------|

     ^  |-3--|                           v  ^  v                      v  ^  v                            v  ^     ^  v      
     E  S  S S E  E  E  E  E  E       E  E  E  E  E  E  E  E       E  E  E  E  E  E  E  E       E  E  E  E  Q     E  E  
  |--9------------0----------------|-----4--4--4----------------|-----4--4--4-----------4----|-----------4--4-----4--4----|
  |--9--9h10p9---------------------|-----2--2--2--2--------5----|-----2--2--2--3-----2-------|-----5-----2--2-----2--2----|
  |--11--------11----11-6-----6----|-----2--2--2-----4--2-------|-----2--2--2----------------|-----------2--2-----2--2----|
  |--11--------------------6-------|--------4-------------------|--------4--------4----------|--------------4-----4-------|
  |--0---------0-----0-----0-------|--0-----0-----0-----0-------|--0-----0-----0-----0-------|--0-----0-----0-----0-------|
  |--------------------------------|----------------------------|----------------------------|----------------------------|


     E  E  E  E  E  E  E  E       E  E  E  E  E  E  E  E       E  E  E  E  E  E  E  E       E  E  E  E  E  E  E  E 
  |--------4--------4----------|--4--------4--------4-------|--------9--------9----------|--9--------9--------9-------|
  |-----2--------2--------2----|--------2--------2----------|-----7--------7--------7----|--------7--------7----------|
  |--4--------4--------4-------|-----4--------4--------4----|--9--------9--------9-------|-----9--------9--------9----|
  |--------2-----------2-------|--------2-----------2-------|--------7-----------7-------|--------7-----------7-------|
  |--0-----------0-------------|--0-----------0-------------|--0-----------0-------------|--0-----------0-------------|
  |----------------------------|----------------------------|----------------------------|----------------------------|

        |-3-|
     E  S S S E  E  E  Q.            W
  |-----5h7p5-4-----4--0----------|--L-------------------------|
  |--------------7----------------|--L-------------------------|
  |--6----------------------------|--L-------------------------|
  |--6----------------------------|--L-------------------------|
  |--0----------------------------|--L-------------------------|
  |-------------------------------|----------------------------|


Login or Register to remove this ad.