Ads

Utsukushiki Zankoku na Sekai (Shingeki no Kyojin) Guitar Tab

Submitted: Jan 05, 2014 by cyx77 (Last updated: May 16, 2014)

5
Average: 5 (8 votes)
Download | Listen
Game: Shingeki no Kyojin
Composer(s): Hiroyuki Sawano, Linked Horizon
Style: Arrangement, Fingerstyle

This song is also called Ending Theme

Click here for a video example.

AutoScroll: Slow | Medium | Fast
                         Utsukushiki Zankoku na Sekai                           
		     Composed By: Rei Ishizuka & Yuki Nara
			Arranged By: Gianfranco Addante

*NOTE: Most of the tied notes have been removed from the plain text tab to simplify it for reading.
The Guitar Pro tab contains a more detailed arrangement.

Standard Tuning 


      S  S  S  S  S S S S S S S S S S S S    S S S S H.            
E||--12-------10------8-----7-----5-----3-|--1-0------------------|
B||--------10-------8---5-6-----5-----3---|------1----------------|
G||-----12-------10-----------7-----5-----|--------0-L------------|
D||---------------------------------------|-----------------------|
A||---------------------------------------|--1-------L------------|
E||---------------------------------------|-----------------------|


   S  S  S  S  S  S  S  S  S  S S  S S S S S    Q    S S E  H         
--17-------15-------13-------10-8----1-------|-----------------------|
--------15-------13-------10------10---1-----|--0--------0--3--------|
-----17-------15-------12----------------2---|--0------0-L--0--------|
-------------------------------------------3-|--2----2---L--2--------|
---------------------------------------------|--------------0--------|
---------------------------------------------|--0--------------------|


  H.           Q       E  S S E  S E  S E  S S S S  
--------------------|------------------------------|
--2-----------------|-----3-3-3--3-3--3-3--1-------|
--0-----------------|-----2-2-2--2-2--2-2--2---2-2-|
--2-----------------|--0-----------0---------------|
--0-----------------|------------------------------|
--------------------|------------------------------|


  S S E  S S S S Q    E  S S    E  S E  S S S E  E  E  E   
-----------------------------|-------------------0--------|
----0-0----------------------|------------1-3-------1-----|
----0-0----0-------------0-2-|--3--3-3-----------------0--|
-------------0---------------|--3--3-3--------------------|
---------------2------0------|--1-------1-----3-----------|
--3------3-------3-----------|----------------------------|


  E  S S S S S S S S S S S S S S    E  E  E  S S S S E  E  S S  
-----------------1-0-------------|-----------------------------|
-------------1-------1-----------|-----3--3--3-3---3-3--1------|
--0--2-2---2---2-------0---------|-----2--2--2-2---2-2--2--2-2-|
--0------0---------------3-2-----|--0------------0-------------|
-----------------------------3---|-----------------------------|
-------------------------------3-|-----------------------------|


  S S E  Q    Q    E  E     E  E  E  E  E  E  Q     
----------------------0--|--1--3--5--3--------0----|
----0-0------------3--L--|--3----------------------|
-------------------------|-----------------0-------|
-------------------------|-------------------------|
-------------------0--L--|--1-----------3----------|
--3------3----3----------|-------------------------|


  S S E  S S S S S S S S S S S S    E  E  E  S S Q    E  S S  
--1-0----------0-------1---0-----|--------1--3---------------|
--3---3------3-------3-------3---|-----3--3----3------3--1-1-|
--2--------2-------2-----------2-|-----3--3----3------3------|
--0------0-------0-------0-------|--1------------1-----------|
---------------------------------|---------------------------|
---------------------------------|---------------------------|


  S S E  E  E  Q    Q       E  E  E  S S E  E  Q     
-------------------------|--------1--3---------6----|
----3-3------------------|-----3--3----3------------|
-------------------------|-----3--3----3----3-------|
---------------4----2----|--1------------1----------|
---------2---------------|--------------------------|
--0---------0------------|--------------------------|


  E  S E.  E  S S S E  S S S    E  E  E  S S Q    E  S S  
--5-----------5-----5--------|--------1--3---------------|
--6--6----------6------6-----|-----3--3----3------3--1-1-|
--5----5----------5------5---|-----3--3----3------3------|
--3--------3---------------3-|--1------------1-----------|
-----------------------------|---------------------------|
-----------------------------|---------------------------|


  S S E  E  E  Q    E  E     E  E  E  E  E  E  E.  S   
--------------------------|-----3--5--3--------0---L--|
----3-3-------------3--5--|--6-----------------1---L--|
--------------------------|--3--------------0------L--|
---------------4----------|---------------------------|
---------2----------------|--------------0---------L--|
--0---------0-------------|--3------------------------|


  E  S S S S E  Q     E   E      S S  S S  E   E   S S  E   E   S  S  
-----1-1-1-1-0--1---------8--|--10-8-10-8-10--10--10-8-10---8--------|
--3--3-3-3-3-3--3----10--10--|--10--------10--10--10-------10--10-10-|
--2--2-2-2-2-2--2------------|---------------------------------------|
--0--0-0-0-0-0--0------------|---0---------0-------------------------|
----------------------0------|---------------------8--------8--------|
-----------------------------|---------------------------------------|


   S S E   S S S S Q    E  S  S    S  S S  S E  S Q    S E   E   
-----7-7-----------7------------|--6----6----6--8---------------|
-----8-8-------8-----------8-10-|--6-10---10-6--L-8----L-8--10--|
-----7-7-----7---7--------------|--7---------7--L-9----L-9---9--|
------------------------7-------|-------------------------------|
--10------10--------------------|-------------------------------|
--------------------------------|--6---------6----8-------------|


  S  S S  S E  S  S Q     Q        S S  S S  E   S S  S S  Q     S  S  
--6----6----6--8-10-------9----|--10-8-10-8-10--10-8-10-8-10----------|
--6-10---10-6------------10----|--10--------10--10---10---10----10-10-|
--7---------7-------------9----|--------------------------------------|
-------------------------------|---0---------0------------------------|
--------------------0----------|----------------------8---------------|
--6---------6------------------|--------------------------------------|


  S  S  E  S S S S Q    E   E     S S S S E  S S E  E  Q     
----12-12----------8----8------|--3---3---3--3-5-------5----|
-----8--8------8---8----8--10--|--3-6---6-3------------5----|
-----9--9----9---9-9----9------|--3-------3---------5-------|
-------------------------------|----------------------------|
-------------------------------|-----------------0----------|
--8--------8-------8----8------|--3-------3-----------------|


  S S S S E  S Q    S Q       S S S Q    S E.  E.  E     W                  
--3-1-3-1-3--3-5----L-3----|--1-0---0----L-3---1---1--|--L----------------||
--3-------3--3-5----L-5----|--3---3-1----L-4---3---2--|--L----------------||
---------------------------|--3-----0----L-3---2---1--|--L----------------||
---------------------------|--3-----------------------|-------------------||
--1-------1----3-----------|--------3----L------------|-------------------||
---------------------------|--------------------------|-------------------||




Duration Legend
---------------
W - whole
H - half
Q - quarter
E - 8th
S - 16th
T - 32nd
X - 64th
. - note dotted
|-n-|  - n-tuplets


Tablature Legend
----------------
L - tied note
x - dead note
g - grace note
(n) - ghost note
> - accentuded note
NH - natural harmonic
AH - artificial harmonic
TH - tapped harmonic
SH - semi harmonic
PH - pitch harmonic
h - hammer on
p - pull off
b - bend
br - bendRelease
pb - preBend
pbr - preBendRelease
brb - bendReleaseBend
\n/ - tremolo bar dip
\n - tremolo bar dive
-/n - tremolo bar Release up
/n\ - tremolo bar inverted dip
/n - tremolo bar return
-\n - tremolo bar Release down
S - shift slide
s - legato slide
/ -  slide into from below or out of upwards
\ -  slide into from above or out of downwards
~ - vibrato
W - wide vibrato
tr - trill
TP - tremolo picking
T - tapping
S - slap
P - pop
< - fade in
^ - brush up
v - brush down
Login or Register to remove this ad.

3 comments on Utsukushiki Zankoku na Sekai

This is fantastic! I was

5

This is fantastic!
I was working on this song too but you beat me to it haha
anyways great job.

Ahh

Sorry about stealing your thunder there but yea, I wanted to get this out there before I started my next semester at school.

This is really good. If only

5

This is really good. If only I could comfortably reach 17th fret with my acoustic guitar :P