This Beautiful Cruel World (Shingeki no Kyojin) Guitar Tab

Submitted: Mar 20, 2014 by JordanVS

5
Average: 5 (4 votes)
Download | Listen
Game: Shingeki no Kyojin
Composer(s): Hiroyuki Sawano, Linked Horizon
Style: Arrangement, Fingerstyle

This song is also called Utsukushiki Zankoku na Sekai

AutoScroll: Slow | Medium | Fast
This Beautiful Cruel World                                           
Utsukushiki Zankoku na Sekai - 1st Ending
Shingeki no Kyojin 
Yoko Hikasa
JordanVS

-Tune 1 step down ( D - G - C - F - A -d )
-4/4
-Tempo : 80



     S S S S S S S S S S S S S S S S    S S S E  S S S S S S S S S S S    S S S S S S S S S S S S S S S S  
D||--2-----0-------------------------|-------------------------0-0-7---|--7-----5-----3-----0-------------|
A||------0-------3-----2-----0-------|---------------------0---------8-|------5-----3-----0---3-0---------|
F||----2-----0-2-----0-------------2-|----0----------0-------0---------|----7-----5-----2---------0-------|
C||----------------4-----2-4---0-2---|--4---0----------2-2-------------|----------------------------0-----|
G||----------------------------------|--------0----2-------------------|------------------------------2---|
D||----------------------------------|-----------0---------------------|--------------------------------3-|


  E  E  S  S E  Q    Q       W                   E  S S E  S S S S E  E  S S    S S E  E  E  E  Q    S S  
-------------0------------|-------------------|-----0-0-0--0-0---0-0---------|---------------------------|
--------------------------|-------------------|---------0-------------3--0-0-|--L-2-2-----L--2---------0-|
--------1h-2--------------|-------------------|-----0--------------0--L------|---------2-------------2---|
---------------------4----|--4----------------|--2-------------2-------------|------2-----2-----2--------|
-----4----------2---------|--6----------------|------------------------------|--0--------------------0-2-|
--2-----------------------|--7----------------|--0-------------0-------------|---------------------------|


                                                                   ^                        
  E  S S E  S S E  E  E  E     E  S S E  S S S S S S S S S S    E  E  E  S S S S E  E  S S  
--------------0----2--------|----------------3-2-------------|-----0--0--0-0---0-0---------|
--1--1-1----3---------3-----|-----0-0------L-0---3-----------|-----0-------------0--3--0-0-|
---------0---------2-----2--|--2------0------------2-0-------|-----0-----0-----------------|
-----2------2---0-----------|------------2-------------4-0---|-----2--2------2------2------|
--3-------------------------|-----2----------2-------------0-|-----2-------------------2---|
----------------------------|--0-----------------------------|--0--------------------------|


                              ^        ^                                   ^                                  
  S S E  E  E  E  E  E  E     E  E  E  E  Q    Q       S  S E  E  E  E  E  E  E     E  E  E  S S Q    E  S S  
---------------------0--2--|--3--5--7--5------------|--3p-2-0--------3--5--3--2--|-----0--3--5-0-L----0------|
--L-2-2--L--2--------------|--5--------7-------7----|-------0--L-----5--7--5--3--|-----------------------3-3-|
----2-2--L-----2-----------|--5--------7------------|-------------4--------4-----|---------------------------|
---------2--------2--------|-----------0--L---------|--2-------------------0-----|---------------------------|
--0---4--------------0--2--|--3---------------------|----------------------------|---------------------------|
---------------------------|------------------------|----------------------------|--1-----1------1----1------|


  S S E  Q    Q    Q       E  E  E  S S Q    Q       E  S S Q    Q    Q       E  E  E  S S Q    E  S S  
----0-0--L--------------|-----0--3--5-0-L----8----|--7--3------------------|-----0--3--5-0-L----0------|
--L---------------------|-------------------------|-------3-L---------0----|-----------------------3-3-|
------------------------|-------------------------|--------------2---------|--2-----2------2----2----2-|
--------------6----4----|-------------------------|--------------0----2----|--3-----3------3----3----4-|
---------4--------------|--------------------8----|------------------------|---------------------------|
--2------2----2----2----|--1-----1------1---------|--3------3----3----3----|---------------------------|


  S S E  Q    Q    E  E     E  E  E  E  Q    Q       E  E  E  E  E  E  E  E     S S S S E  S S S S E  E  S S  
----------------------2--|--3--5--7--5-------2----|--0-----------------------|-------------------------------|
--L-5-5--L---------5-----|--------5----------3----|-----0--------------0--3--|--5-3-5-3-5--5-3-5-3-5-----0-0-|
--L------2----2----2-----|--2-----5----------4----|-----------------------2--|--4-4-4-4-4--4-4-4-4-4-----0-0-|
--L------4----4----4-----|------------------------|--2-----2-----------4--0--|------------------------0------|
-------------------------|--0-----------2---------|-----------2--------2-----|----------2--------------------|
-------------------------|------------------------|--------------0-----------|--0--------------3-------------|


  S S E  Q    S  S S S S S S S    S S S S E  S S Q    E  E     S S S S E  S S Q    Q     
--------------5p-0-------------|----------------------------|---------------0-L---------|
--L-2-2--L---------2---------0-|--1-0-1-0-1--3---L-------0--|--1-0-1-0-1--3-0-L----4----|
--L-2-2--L-----------2-----2---|--0-0-0-0-0----2-L----2-----|--0-0-0-0-0--0--------4----|
---------2-------------2-------|----------2----4-L----4-----|----------2-----------4----|
--0-----------0----------4-0-2-|--3------------5-L----5-----|--3------------2-L---------|
-------------------------------|----------------------------|---------------------------|


  S S S S E  S S S S E  E  S S    S S S S E.  S S S S S E  E     S S S S E.  S E  E  E  E   
-------------------------------|----2-2-L-----3-2-------------|----------------------------|
--5-3-5-3-5--5-3-5-3-5-----0-0-|--L-3-3-L---------3-----3--0--|----------------0-----------|
--4-4-4-4-4--4-4-4-4-4-----0-0-|--L-----------------2---------|--2-0-2-0-2---2----------0--|
------------------------0------|--0-------0-----------4-0-----|--2-2-2-2-2--------0--4-----|
----------2--------------------|--------------0------------2--|--0-------0---0-2-----------|
--0--------------3-------------|------------------------------|----------------------------|


                                         ^   ^   ^                          
  S S S S E  S S Q    Q       S S S Q    E.  E.  E.     H        H          
--5-3-5-3-5--5-7-L----5----|--3-2-0-L----0-----------|--------------------||
--5-5-5-5-5--5-7-L----3----|-------------1---3---3---|--L-----------------||
---------------------------|-------------2---4---3---|--L-----------------||
----------------------0----|--5-4-2-L----3---5---5---|--L-----------------||
--0-------0----------------|-----------------7---6---|--L-----------------||
---------------7-L---------|-------------------------|--------------------||




Duration Legend
---------------
W - whole
H - half
Q - quarter
E - 8th
S - 16th
T - 32nd
X - 64th
. - note dotted
|-n-|  - n-tuplets


Tablature Legend
----------------
L - tied note
h - hammer on
p - pull off
^ - brush up
v - brush down
Login or Register to remove this ad.