Ads

Shinzou wo Sasageyo (Shingeki no Kyojin) Guitar Tab

Submitted: May 11, 2017 by Basisti94

5
Average: 5 (5 votes)
Download | Listen
Game: Shingeki no Kyojin
Composer(s): Hiroyuki Sawano, Linked Horizon
Style: Arrangement, Fingerstyle

This song is also called Opening Theme 2

AutoScroll: Slow | Medium | Fast
                        Shinzou wo Sasageyo
                                
Attack on Titan Season 2 
Linked Horizon
Guitar arrangement by Basisti94 (Miro Laaksonen)
29.4.2017




Tempo ~ 160

     E  Q    Q    Q    E     E  Q    Q    Q    E     E  Q    Q    Q    E   
E||-----0----1---------0--|-----0----1---------0--|-----0----1---------0--|
B||---------------3-------|---------------3-------|---------------3-------|
G||--2--------------------|--2--------------------|--2-------2---------2--|
D||-----------------------|-----------------------|-----2---------0-------|
A||-----------------------|-----------------------|--0--------------------|
E||-----------------------|-----------------------|-----------------------|


  E  Q    Q    Q    E     E  E  E  Q    Q    E     E  E  E  Q    Q    E   
--L--------------------|------------------------|------------------------|
-----1----3----0----1--|-----2-----3----0----2--|--L--2-----3----0-------|
--L--------------------|------------------------|------------------------|
-----------------------|--4-----4---------------|--------4------------4--|
-----3----5----2----3--|------------------------|------------------------|
-----------------------|--2---------------------|--2---------------------|


  E  E  E  Q    Q    E     E  E  E  Q    Q    E     E  E  E  Q    Q    E   
------------------------|------------------------|------------------------|
-----2-----3----0----2--|--L--2-----3----0-------|-----2-----3----0----2--|
------------------------|------------------------|------------------------|
--4---------------------|---------------------4--|--4---------------------|
--0-----0---------------|--0-----0---------------|--2-----2---------------|
------------------------|------------------------|------------------------|


  E  E  E  Q    Q    E     E  E  E  E  E  E  E  E     H        Q.     E   
------------------------|--------------------------|--2--------1---------|
--L--2-----3----0-------|-----2-----3--------0--2--|---------------------|
------------------------|-----------------0--------|------------------2--|
---------------------4--|--4-----------------------|---------------------|
--0-----0---------------|--------------------------|--4--------4---------|
------------------------|--3-----3-----3-----------|---------------------|


  E  E  E  Q    Q    E     E  E  E  Q    Q    E     E  E  E  Q    Q    E   
-----0-----1---------0--|--L--0-----1------------|-----0-----1---------0--|
----------------3-------|----------------3----L--|----------------3-------|
--2--------2------------|-----------2---------2--|--2--------2------------|
--------2---------------|--------2---------------|------------------------|
--0---------------------|--0---------------------|--------3---------------|
------------------------|------------------------|--1---------------------|


  E  E  E  Q    Q    E     E  E  E  Q    Q    E     E  E  E  Q    Q    E   
--L--0-----1------------|-----0-----1---------0--|--L--0-----1------------|
----------------3-------|----------------3-------|----------------3-------|
-----------2---------2--|--2-----2--2------------|---------------------2--|
------------------------|--0---------------------|--------2---------------|
--------3---------------|------------------------|--3---------------------|
--1---------------------|------------------------|------------------------|


                            ^        ^                                    
  E  E  E  Q    E  E  E     H        H           E  E  E  E  E  E  E  E   
-----0-----1----L-----0--|--5--------4--------|-----------------------2--|
-------------------3-----|--5--------5--------|--2--0--------------------|
--2----------------------|--4--------4--------|--------2--1-----1--2-----|
--------3----------------|--------------------|--------------4-----------|
--1----------------------|--------------------|--------------------------|
-------------------------|--0--------0--------|--2-----------------------|


  E  E  E  E  E  E  E  E     E  E  E  E  E  E  E  E   
--0-----------------------|--------------------------|
-----------0--2-----------|-----------2--0-----------|
-----------------2--------|-----1--2--------2--1-----|
--------2-----------2-----|--4--------------------4--|
-----0-----------------0--|--------------------------|
--0-----------------------|--2-----------------------|


  E  E  E  E  E  E  E  E     E  E  E  E  E  E  E  E   
--0--2--0-----------------|--0--------------------0--|
-----------0--2-----------|-----3--1--0-----0--1-----|
--------------------2-----|--------------2-----------|
-----------------4-----3--|--------------------------|
--------------------------|--0-----------------------|
--0-----------------------|--------------------------|


  E  E  E  S S E  E  E  E     E  E  E  E  E  E  E  E   
---------------3-----------|--0--------------------0--|
--3--1--3---------0--------|-----3--1--0-----0--1-----|
-------------0-------0-----|--------------2-----------|
-----------0------------0--|--------------2-----------|
---------------------------|--0-----------------------|
--3------------------------|--------------------------|


  E  E  E  E  E  E  E  E     E  E  E  E  E  E  E  E     E  E  E  E  E  E  Q     
--------------0-----------|--0--------------------0--|--------------------3----|
--3--------------------0--|-----3--1--0-----0--1-----|--3--1--0--1--3-----5----|
-----------0--------------|--------------2-----------|-------------------------|
--------2-----------2-----|--------------2-----------|-----------------0-------|
-----2-----------2--------|--0-----------------------|-------------------------|
--0-----------0-----------|--------------------------|--0----------------------|


  E  E  E  E  E  E  E  E     Q    E  E  Q    E  E     Q    E  E  Q    E  E   
--5-----------3--------0--|--0------------------0--|--1-------0--2-------2--|
-----5--------------------|----------2--3----------|-------3----------4-----|
--------2-----------4-----|-------0----------0-----|------------------------|
-----------2-----4--------|------------------------|--0----------1----------|
--0-----------2-----------|--3----------4----------|------------------------|
--------------------------|------------------------|------------------------|


  ^        ^                                                          
  H        Q.     E     Q.     E  Q.     E     Q.     E  E  E  E  E   
--5--------4---------|-------------------1--|--1------0--0-----------|
--5--------1------1--|--1------3--3---------|------------------------|
-----------1---------|----------------------|---------------0--------|
--2------------------|----------------------|------------------2-----|
---------------------|--0---------2---------|--3---------3--------3--|
---------------------|----------------------|------------------------|


  Q.     E  E  E  E  E     Q.     E  Q    E  E     Q.     E  Q.     E   
------------------------|-----------------------|-------------------1--|
--1------1--3--1--0-----|-----------------------|--1------3--3---------|
---------------------2--|--2------0--0-------0--|----------------------|
------------------------|-----------------------|----------------------|
------------------------|--3---------3----2-----|--0-------------------|
--1---------3-----------|-----------------------|----------------------|


  Q.     E  Q    E  E     Q.     E  E  E  E  E     Q.     E  Q.     E   
--1------0--0----------|---------------------5--|--5------4--4---------|
--------------------3--|--1------1--3-----3-----|--5---------5------4--|
-----------------------|---------------5--------|--4---------4---------|
-----------------------|------------------------|----------------------|
-----------------2-----|------------------------|----------------------|
-----------------------|--1---------3-----------|--0-------------------|


  Q.     E  Q.     E     Q.     E  Q    Q       Q.     E  E  E  E  E   
-------------------4--|--4------3--3---------|------------1-----------|
--4------6--6---------|----------------------|--4------4-----4--3--1--|
----------------------|------------3---------|------------------------|
------------0---------|--1---------1----0----|------------------------|
--3-------------------|----------------------|--0---------1-----------|
----------------------|----------------------|------------------------|


  Q.     E  Q    E  E     Q.     E  Q.     E     Q.     E  Q    Q     
-----------------------|-------------------4--|--4------3--3---------|
--1--------------------|--4------6--6---------|----------------------|
---------3--3-------3--|----------------------|------------3---------|
--1---------1----0-----|------------0---------|--1---------1----0----|
-----------------------|--3-------------------|----------------------|
-----------------------|----------------------|----------------------|


  Q.     E  E  E  E  E     E  E  E  E  E  E  E  E     E  E  E  E  E  E  E  E   
------------1-----------|-----3-----4-----------3--|-----3-----4-----------3--|
--4------4-----4--3-----|-----------------6--------|-----------------6--------|
---------------------3--|--5-----------------------|--------------------------|
------------------------|--------------------------|--------------------------|
--0---------------------|--3-----3-----3-----3-----|--3-----3-----3-----3-----|
------------------------|--------------------------|--------------------------|


  E  E  E  E  E  E  E  E     E  E  E  E  E  E  E  E   
-----3-----4-----------3--|--------------------------|
-----------------6--------|-----4-----6-----3-----4--|
--5-----------------------|--------------------------|
--------------------------|--------------------------|
--3-----3-----3-----3-----|--3-----3-----3-----3-----|
--------------------------|--------------------------|


  E  E  E  E  E  E  E  E     E  E  E  E  E  E  E  E   
-----6-----7-----------6--|-----6-----7-----------6--|
-----------------9--------|-----------------9--------|
--8-----------------------|--------------------------|
--------------------------|--------------------------|
--6-----6-----6-----6-----|--6-----6-----6-----6-----|
--------------------------|--------------------------|


  E  E  E  E  E  E  E  E     E  E  E  E  E  E  E  E     W                 
-----6-----7-----------6--|--------------------------|-------------------|
-----------------9--------|-----7-----9-----6-----7--|-------------------|
--8-----------------------|--------------------------|--8----------------|
--------------------------|--------------------------|--8----------------|
--6-----6-----6-----6-----|--6-----6-----6-----6-----|--6----------------|
--------------------------|--------------------------|-------------------|


-------------------||
-------------------||
-------------------||
-------------------||
-------------------||
-------------------||




Duration Legend
---------------
W - whole
H - half
Q - quarter
E - 8th
S - 16th
T - 32nd
X - 64th
. - note dotted
|-n-|  - n-tuplets


Tablature Legend
----------------
L - tied note
x - dead note
g - grace note
(n) - ghost note
> - accentuded note
NH - natural harmonic
AH - artificial harmonic
TH - tapped harmonic
SH - semi harmonic
PH - pitch harmonic
h - hammer on
p - pull off
b - bend
br - bendRelease
pb - preBend
pbr - preBendRelease
brb - bendReleaseBend
\n/ - tremolo bar dip
\n - tremolo bar dive
-/n - tremolo bar Release up
/n\ - tremolo bar inverted dip
/n - tremolo bar return
-\n - tremolo bar Release down
S - shift slide
s - legato slide
/ -  slide into from below or out of upwards
\ -  slide into from above or out of downwards
~ - vibrato
W - wide vibrato
tr - trill
TP - tremolo picking
T - tapping
S - slap
P - pop
< - fade in
^ - brush up
v - brush down
Login or Register to remove this ad.