Ads

omake-pfadlib (Shingeki no Kyojin) Guitar Tab

Submitted: Apr 19, 2014 by scarecrowlol

5
Average: 5 (8 votes)
Download | Listen
Game: Shingeki no Kyojin
Composer(s): Hiroyuki Sawano, Linked Horizon
Style: Arrangement, Fingerstyle, Natural harmonics, Pinch harmonics, Tapping

AutoScroll: Slow | Medium | Fast
Title: omake-pfadlib
SubTitle: Attack On Titan
Artist: Hiroyuki Sawano
Tabber: Mitch Jackson
Tempo = 60
T/S = 4/4


     H           E  E  E  E       H           E  E  E  E       H           E  E  E  E       H           H
D |--1-----------L--1-----1----|--3-----------L--3-----3----|--5-----------L--5-----5----|--6-----------8-------------|
A |----------------------------|----------------------------|--3-----------L-------------|--3-------------------------|
F |--2-----------L-----2-------|--2-----------L-----2-------|--2-----------L-----2-------|--3-------------------------|
C |--0-----------L-------------|--2-----------L-------------|--3-----------L-------------|--5-----------7-------------|
G |----------------------------|----------------------------|----------------------------|----------------------------|
C |----------------------------|----------------------------|----------------------------|----------------------------|



     E  E  E  E  E  E  E  E       E  E  E  E  E  S.T E  E       E  E  E  E  E  E  E  E       H           E  E  E  E 
  |--8--------8----------------|--0-----------0--------------|--5--------------8----------|--0-----------L--------13---|
  |--------------------8-------|--------1--3-----3-3-5--6----|-----------5--6--------6----|--------------------10------|
  |--10-------------10----9----|-----0-----------------------|--------7-----------7-------|-----------------9----------|
  |--------8--10-12------------|-----------------------------|-----7----------------------|--2-----------L-------------|
  |-----8----------------------|--3--------------------------|--5-------------------------|--0-----------L-------------|
  |--8-------------------------|-----------------------------|----------------------------|----------------------------|


    N.H                                                       N.H
     Q     Q     E  E  E  E       E  H           E  E  E       Q     Q     E  E  E  E       E  H           E  E  E   
  |-<12>---------8--12----15---|--13-12----------------13---|-<12>---0-----0--12----15---|--13-12----------0----------|
  |--------6-----6-----10------|--------------------10------|--------8-----10----10------|--------------------6--8----|
  |--------7-----7-------------|-----------------9----------|----------------------------|----------------------------|
  |--0-------------------------|----------------------------|----------------------------|----------------------------|
  |----------------------------|----------------------------|----------------------------|----------------------------|
  |----------------------------|----------------------------|--10------------------------|----------------------------|



     E  E  E  E  Q.       S S      E  E  E  E  E  E  E  E       E  E  E  E  E  E  E  E       E  E  E  E  H
  |-----------8--10-------------|--8--6--5-------------------|--12-------10-12----12------|--0-----0-------------------|
  |--10----11-------------------|-----------8--6--5--6--8----|--------13-------------10---|----------------------------|
  |-----10----------------7-7---|----------------------------|-----12----------12---------|-----10----7--L-------------|
  |--8--------------------------|----------------------------|--10------------------------|----------------------------|
  |-----------------------------|----------------------------|----------------------------|----------------------------|
  |-----------------------------|----------------------------|----------------------------|----------------------------|



     H           E  E  E  E       E  E  E  E  E  E  E  E       S.T E  Q.       E  E  E       S S E  E  E  E  E  E  E
  |-----------------------1----|--0--------1--3--0-----3----|--3h1-0-----------------1----|--1h0----------0--0-----3----|
  |----------------------------|--------3-------------------|-----------------------------|---------1--3----------------|
  |--L-----------L-----2-------|-----2--------------2-------|--2------0-----------2-------|------2--------------2-------|
  |-----------------2----------|--0-------------------------|------------------2----------|-----------------------------|
  |----------------------------|----------------------------|-----------------------------|--3--------------------------|
  |----------------------------|----------------------------|-----------------------------|-----------------------------|


                                                                                                               T
     S.T Q     E  E  E  E  E       E  E  E  E  E  E  E  E       E  E  Q     E  E  E  E       E  E  E  E  E  E  E  E
  |--3-1-0--------0-------------|----------------------------|-----1--3--------0-----3----|--0-----------0--3--12-3----|
  |------------3-----3-----1----|--1--------1--3--------1----|--3-----------6-----6-------|--------1--3----------------|
  |-----------------------------|--------3--------3--2-------|----------------------------|-----0----------------------|
  |---------------------3-------|-----3----------------------|----------------------------|----------------------------|
  |-----------------------------|--1-------------------------|----------------------------|--3-------------------------|
  |-----------------------------|----------------------------|----------------------------|----------------------------|



     E  E  E  E  E  E  E  E       E  E  E  E  Q.       E       E  E  E  E  E  E  E  E       E  E  E  E  Q     E  E
  |--0--------0--0--1--0--1----|--3--------5--1--------1----|--------0-----0--0--0-------|-----------5--------5-------|
  |----------------------------|--1--------1----------------|--------1--3-----------6----|--8--------6--8-------------|
  |--------2-------------------|--------3-------------------|-----0----------------------|--------7--------------7----|
  |-----2--------2-------------|-----3----------------------|----------------------------|-----7----------------------|
  |--0-------------------------|--1-------------------------|--3-------------------------|--5-------------------------|
  |----------------------------|----------------------------|----------------------------|----------------------------|



     E  E  E  E  E  E  E  E       E  E  E  E  E  E  E  E       E  E  E  E  E  E  E  E       E  E  E  E  E  E  E  E 
  |-----------------1--1h-0----|----------------------------|----------------------------|--1-----0--------0--5-------|
  |-----------1--3-------------|-----------------6--6-------|--5--------------5--6--8----|--------------2-------------|
  |--------2-------------------|--9-----------7--------9----|--------------7-------------|-----------2-----------2----|
  |-----3----------------------|--------6--9----------------|--8-----5--8----------------|--------2-------------------|
  |--0-------------------------|-----7----------------------|-----5----------------------|--0--4----------------------|
  |----------------------------|--6-------------------------|--5-------------------------|----------------------------|



     E  E  Q     E  E  E  E       E  E  E  E  E  E  E  E       E  E  E  E  E  E  E  E       E  E  E  E  E  E  E  E
  |-----5--0--------13-12-15---|--13-------------1--0-------|--3-----1-----0--1--0-------|--5-----3-----3-----1-------|
  |--5-----------10------------|--10----------------1-------|--------1--3-----3----------|-----------1-----1-----1----|
  |-----------------10-9--12---|--10----------2--------2----|-----2-----------------2----|--------3-------------------|
  |--------------7-------------|--------0--3-----3----------|----------------------------|-----3----------------------|
  |----------------------------|-----0----------------------|--3-------------------------|--1-------------------------|
  |----------------------------|--0-------------------------|----------------------------|----------------------------|



     E  E  E  E  E  E  E  E       E  E  E  E  E  E  E  E       E  E  E  E  E  E  E  E       E  E  E  E  E  E  E  E     
  |----------------------------|-----------------------5----|--6--------3--3-----1--3----|-----------3-----1--0-------|
  |--3-----1-----1--1----------|-----------6--6-------------|--------------1-------------|--------------1--------1----|
  |--------2-----------3--2----|--3-----0-----3-----0-------|--------2-----------2-------|--2--3--2-------------------|
  |-----2-----2----------------|-----0-----0-----0-----0----|-----2-----2-----2-----2----|-----3-----------3-----3----|
  |--0-------------------------|----------------------------|--0-------------------------|--1-------------------------|
  |----------------------------|--5-------------------------|----------------------------|----------------------------|



     E  E  E  E  E  E  E  E       E  E  E  E  E  E  E  E       E  E  E  E  E  E  E  E       E  E  E  E  E  E  E  E 
  |-----------------0-----5----|--3-----1--------1--0-------|--3-----1-----0--1----------|-----------3--3--1--1--5----|
  |--------------6-----6-------|--3-------------------------|--------1--3--------1-------|-----------1--3-------------|
  |--------5-----5-----5-------|--------------2-----2--2----|-----2-----------------3----|--3--2--2-------------------|
  |-----5-----5-----5----------|--------0--3-----3-----3----|----------------------------|-----3----------------------|
  |--3-------------------------|-----0----------------------|--3-------------------------|--1-------------------------|
  |----------------------------|--0-------------------------|----------------------------|----------------------------|



     E  E  E  E  E  E  E  E       E  E  E  E  E  E  E  E       E  E  E  E  E  E  Q          E  E  E  E  E  E  E  E 
  |--3-----0-----------0-------|--0-----0-----0-----0-------|--------0-----1-----0-------|--0-----0-----0-----0-------|
  |--------------1-------------|-----6-----------6----------|--3-------------------------|-----6-----------6----------|
  |--------2-----------2-------|--0-------------------------|-----2-----2-----2----------|----------------------------|
  |-----2-----2-----2----------|-----------7--7--------7----|--------------0-------------|--7--------7--7--------7----|
  |--0-------------------------|----------------------------|--1-----3-------------------|--5-----------7-------------|
  |----------------------------|----------------------------|----------------------------|--5-----------7-------------|



     E  E  E  E  E  E  E  E       S S S S S S S S S S S S S S S S      S S S S S S S S S S S S S S S S  
  |--------1-----3-----5-------|----0-------0-------0-------0-------|----0-------0-------0-------0-------|
  |--3-----------3-----3-------|--6---6---6---6---6---6---6---6-----|--6---6---6---6---6---6---6---6-----|
  |----------------------------|------------------------------------|------------------------------------|
  |----------------------------|--------7-------7-------7-------7---|--------7-------7-------7-------7---|
  |--1-----1-----3-----3-------|------------------------------------|--3---------------------------------|
  |-----3-----3-----5-----5----|--0---------------------------------|------------------------------------|



     S S S S S S S S S S S S S S S S      S S S S S S S S S S S S S S S S      S S S S S S S S S S S S S S S S
  |----0-------0-------0-------0-------|------3---5---3-------0-------3-----|--5-----5-----5---5---5-----6-------|
  |--6---6---6---6---6---6---6---6-----|--6---------------6-------6---------|------3-----3-----------------------|
  |------------------------------------|------------------------------------|----2-----2-----2---2-----------2---|
  |--------7-------7-------7-------7---|----7---7---7---7---7---7---7---7---|--------------------------0---------|
  |------------------------------------|--3---------------------------------|------------------------0-----0-----|
  |--8---------------------------------|------------------------------------|--0---------------------------------|



     S S S S S S S S S S E  E  S S      S S S S S S S S S S S S E  E       E  E  E  E  E  E  E  E
  |--5-----5-----5-----5-------5-6---|--5---3---1---0---1---3-----------|--------------0-----3--5----|
  |------3-----3-----3------1--------|----------------------------------|--------1--3--1--6--5--6----|
  |----2-----2-----2-----2-----------|----2---2---2---2---2---2---------|--2--3--2--3-----7----------|
  |----------------------------------|--------------------------0-------|--3--5----------------------|
  |--3-------------------------0-----|--1--------------------------3----|--3-----3-----3-----3-------|
  |----------------------------------|----------------------------------|-----5-----5-----5-----5----|

   
                P.H -->
     H           E  E  E  E       E  E  E  E  E  E  E  E       W
  |--10------------<5><5><6>---|-------<5>------------------|----------------------------||
  |--10------------------------|-<8><8>---------------------|----------------------------||
  |-------------<7>------------|----------<7><7>-7-----7----|----------------------------||
  |----------------------------|--------------------0-------|--0-------------------------||
  |----------------------------|----------------------------|----------------------------||
  |--0-------------------------|----------------------------|--0-------------------------||


Login or Register to remove this ad.

1 comment on omake-pfadlib

I love it!

5

I love it!