Guren no Yumiya (Shingeki no Kyojin) Guitar Tab

Submitted: May 21, 2013 by jit

3
Average: 3 (2 votes)
Download | Listen
Game: Shingeki no Kyojin
Composer(s): Hiroyuki Sawano, Linked Horizon
Style: Transcription

Click here for a video example.

AutoScroll: Slow | Medium | Fast
Title: Guren no Yumiya 
Artist: Linked Horizon
Tabbed by: Jerich Rosales
May 20, 2013

Guren no Yumiya 
Standard Tuning
						x2
E||------------------------|---------------------||
B||------------------------|---------------------||
G||------------------------|---------------------||
D||-6----2---4----1----2---|----------1----------||
A||------------------------|-----4---------2-----||
E||------------------------|---------------------||
	
						x2
E||------------------------|---------------------||
B||------------------------|---------------------||
G||-9----5---7----4----5---|----------4----------||
D||------------------------|-----7---------5-----||
A||------------------------|---------------------||
E||------------------------|---------------------||

E|---------------------------------|-----------------|--------|--------|-------------------------------|
B|---------------------------------|-----------------|--------|--------|-------------------------------|
G|---------------------------------|-----------------|--------|--------|-------------------------------|
D|---------------------------------|-----------------|--------|--------|-------------------------------|
A|---------7---8---6-------4-------|-6---------------|--------|--------|-------2--2--2-----4--4--4-----|
E|-9---10--------------7-------6---|-4---------------|--------|--------|-------0--0--0-----2--2--2-----|
   p.m___________________________


E|-----------------|--------|--------|-----------------||
B|-----------------|--------|--------|-----------------||
G|-----------------|--------|--------|-----------------||
D|-----------------|--------|--------|-----------------||
A|-6---------------|--------|--------|-------x---4-----||
E|-4---------------|--------|--------|-------x---2-----||

								   								   x2
E|------------------------------|---------------------------------||------------------------------|---------------------------------||
B|------------------------------|---------------------------------||------------------------------|---------------------------------||
G|------------------------------|---------------------------------||------------------------------|---------------------------------||
D|------------------------------|---------------------------------||------------------------------|---------------------------------||
A|-6----6---6---6---6---6---6---|-6---6---6---6---6---6---6---6---||-2----2---2---2---2---2---2---|-2---2---2---2---2---2---2---2---||
E|-4----4---4---4---4---4---4---|-4---4---4---4---4---4---4---4---||-0----0---0---0---0---0---0---|-0---0---0---0---0---0---0---0---||
       p.m___________________     p.m__________________________     p.m________________________        p.m_______________________

E|--------|--------|---------------------------|---------------------------|---------------------------|
B|--------|--------|---------------------------|---------------------------|---------------------------|
G|--------|--------|---------------------------|---------------------------|---------------------------|
D|-6------|-8------|---------------------------|---------------------------|-6----6---6----------------|
A|-4------|-6------|-6----6---6---8----8---8---|-9----9---9---10---10--10--|-4----4---4---4---6---7----|
E|--------|--------|-4----4---4---6----6---6---|-7----7---7---8----8---8---|---------------------------|
  (trill)   (trill)      p.m___       p.m___         p.m___       p.m____        p.m________________

E|---------------------------------|------------------------------|-------------|------------------------------|
B|---------------------------------|------------------------------|-------------|------------------------------|
G|---------------------------------|------------------------------|-------------|------------------------------|
D|-------------9-------9-----------|------------------------------|-6-----6-----|-6----6---6-------------------|
A|---------6---7-------6-------7---|-----7---7---7---7----7---7---|-4-----3-----|-4----4---4---4---6---7---7---|
E|-7---9-----------------------5---|-----5---5---5---5----5---5---|-------------|--------------------------5---|
  p.m_______                            p.m________      p.m____                      p.m________________

E|------------------------------|------------------------------|-----------------|
B|------------------------------|------------------------------|-----------------|
G|------------------------------|------------------------------|-----------------|
D|------------------------------|--------------------------9---|-------9----9----|
A|------7---7-----------4---7---|-6----6---6-----------6---7---|-------7----6----|
E|------5---5---5---7-----------|-7----7---7---7---9-----------|-----------------|
       p.m___________________         p.m________________

E|------------------------------|------------------------------|------------------------------|
B|------------------------------|------------------------------|------------------------------|
G|------------------------------|------------------------------|------------------------------|
D|-6----6---6-------------------|------------------------------|------------------------------|
A|-4----4---4---4---6---7---7---|------7---7-----------4---7---|-6----6---6-----------6-------|
E|--------------------------5---|------5---5---5---7-----------|-7----7---7---7---9-----------|
       p.m_______________             p.m____________________        p.m_________________

E|---------------------|------------------------------|------------------------------|
B|---------------------|------------------------------|------------------------------|
G|---------------------|------------------------------|------------------------------|
D|------6----7----9----|-6----6---6-------------------|------------------------------|
A|------7----9----11---|-4----4---4---4---6---7---7---|------7---7-----------4---7---|
E|---------------------|--------------------------5---|------5---5---5---7-----------|
                             p.m_______________             p.m___________________

E|------------------------------|-----------------|------------------------------|
B|------------------------------|-----------------|------------------------------|
G|------------------------------|-----------------|------------------------------|
D|--------------------------9---|-------9----9----|-6----6---6-------------------|
A|-6----6---6-----------6---7---|-------6----6----|-4----4---4---4---6---7---7---|
E|-7----7---7---7---9-----------|-----------------|--------------------------5---|
       p.m_______________                               p.m_______________

E|------------------------------|-----------------|
B|------------------------------|-----------------|
G|------------------------------|-----------------|
D|------------------------------|-----------------|
A|------7---7-----------4---7---|-9---------------|
E|------5---5---5---7-----------|-7---------------|
      p.m_____________________
						 x2
E||------------------------|---------------------||
B||------------------------|---------------------||
G||------------------------|---------------------||
D||-6----2---4----1----2---|----------1----------||
A||------------------------|-----4---------2-----||
E||------------------------|---------------------||

						 x4
E||------------------------|---------------------||
B||------------------------|---------------------||
G||------------------------|---------------------||
D||-9----5---7----4----5---|----------4----------||
A||------------------------|-----7---------5-----||
E||------------------------|---------------------||


E|------------------------|---------------------|------------------------|-------------||
B|------------------------|---------------------|------------------------|-------------||
G|------------------------|---------------------|------------------------|-------------||
D|-12---8---10---7----8---|----------7----------|-12---8---10---7---8----|-------------||
A|------------------------|-----10--------8-----|------------------------|-------5-----||
E|------------------------|---------------------|------------------------|-------3-----||



Login or Register to remove this ad.