Call your name (Shingeki no Kyojin) Guitar Tab

Submitted: Aug 18, 2015 by Pupos

4.8
Average: 4.8 (5 votes)
Download | Listen
Game: Shingeki no Kyojin
Composer(s): Hiroyuki Sawano, Linked Horizon
Style: Arrangement, Fingerstyle, Tremolo

Click here for a video example.

AutoScroll: Slow | Medium | Fast
Call your name (Shingeki no Kyoujin OST)
arranged by Roman Averyanov

Symbol "=" denotes Tremolo.
Pay attention on uncommon tuning!!
                                                             
E |----------------------------|----------------------------|
B |--2--------2L-2L----2-------|--2--------2L-2L----2-------|
F#|--3--2--3-------------------|--2--2--3-------------------|
B |--3-------------------------|--2-------------------------|
F#|--0-------------------------|--0-------------------------|
B |----------------------------|----------------------------|

                                                          
----------------------------|----------------------------|
--2--------2L-2L----2-------|--2--------2L-2L----2-------|
--3--2--3-------------------|--2--2--3-------------------|
--3-------------------------|--2--------2----------------|
--0-------------------------|--0-------------------------|
----------------------------|----------------------------|

                                                     
----------------------------------------------------|
----------------------------------------------------|
-----------0--2L-2--0--2--------0--2-----3--0-------|
--2-------------------------------------------------|
----------------------------------------------------|
--3L----3-----------------3-----------3-------------|

                                                     
----------------------------------------------------|
-----------------------------------------------2L---|
--------------------------------------------0-------|
--2-----------2g----------2-----------2g------------|
--0-------------------------------------------------|
----------------------------------------------------|

                                                     
----------------------------------------------------|
--2--0-----0----------------------------------------|
--------3-----0--------------------3--2--3--2-------|
--------------3-----------3-------------------------|
--------------0-------------------------------------|
----------------------------------------------------|

                                                     
----------------------------------------------------|
----------------------------------------------------|
--------0--2-----3L-3-------------------------------|
--2-----------2g----------2-----------2-------------|
--0-----------------------0-----------0-------------|
----------------------------------------------------|

                                                     
----------------------------------------------------|
----------------------------------------------------|
--------2-----2-----------2-----0--2-----3L-3-------|
--3-----------3-----------3-----------3-------------|
--0-------------------------------------------------|
----------------------------------------------------|

                                                     
----------------------------------------------------|
-----------------------------------------------2----|
--2-----0-----------------------------------0-------|
--2-----------2-----------2--------------2g---------|
--0-----------0-----------0-----------0-------------|
----------------------------------------------------|

                                                     
----------------------------------------------------|
-----0-----0----------------------------------------|
--------3-----0-----------------------2--3--2-------|
--------------3g----------3g----------5-------------|
--------------3g----------3g----------5-------------|
--3-----------3-----------------------5-------------|

                             
----------------------------|
----------------------------|
-----0--------0-------------|
--------2-----2-------------|
--0-----0-----0-------------|
----------------------------|

                                                     
----------------------------------------------------|
----------------------------------------------------|
--------0-----0-----------2--0L-0--2L-2--3L-3--3----|
--3g----------3-----------3-------------------------|
--3-----------3-------------------------------------|
--3-------------------------------------------------|

                                                     
----------------------------------------------------|
--------------2g----------2g----------2g------------|
--2--0L-0-----0g----------0g----------0g-------0----|
--2-------------------------------------------------|
--0-------------------------------------------------|
----------------------------------------------------|

                                                     
----------------------------------------------------|
--2-----0--------0----------------------------------|
--0--------3L-3-----0-----------------3-----2-------|
--3-----------------------3g------------------------|
--3-----------------------3g------------------------|
--3-----------------------3g------------------------|

                                                     
----------------------------------------------------|
----------------------------------------------------|
--2--------0--2s-------3s-0-------------------------|
--2-----------------------------------2g------------|
--0-----------------------------------0-------------|
--2-----------------------------------2g------------|

                                                     
----------------------------------------------------|
----------------------------------------------------|
--------0-----0--------0--------------2s-3h-0-------|
--2-----------------------------------5g------------|
--3-----------------------------------5g------------|
--3-----------------------3-----------5g------------|

                                                     
----------------------------------------------------|
--2g----------2g----------2g-------------5--5-------|
--------------------------0--------0--3-------------|
--2g----------2g----------2g------------------------|
--0g----------0g----------0g------------------------|
----------------------------------------------------|

        W                                            
----------------------------------------------------|
-----------------------------------2--0-------------|
--------3L----3-----------3-----0-----0-----0-------|
--3g------------------------------------------------|
--3-------------------------------------------------|
--3-----------------------3-----------2g------------|

                             
--------x-----x-------------|
-----------------------0----|
--0-------------------------|
--0-------------------------|
----------------------------|
--0L----0L----0L----0-------|

                                                     
--2-----------------------2-----0-----------5-------|
--0-----------------------0--------3----------------|
--0-----0-----------0-----0--------------0-----0----|
--0--0-----0-----0-----0--0--0--------0-------------|
--0-----------------------0-------------------------|
--0-----------0-----------0-------------------------|

                                                     
--2-----------------------2-----3-----5-------------|
--0-----------------------0-------------------------|
--0-----0-----------0-----0--------0--------0-------|
--3--3-----3-----3-----3--3--3-----------3-----3----|
--1-----------1-----------1-------------------------|
----------------------------------------------------|

                                                     
----------------------------------------------------|
--5-----------------7-------------------------------|
--3-----3-----------------------3-----5-----7-------|
--5--5-----5-----5-----5-----5-----5-----5-----5----|
--3-----------3-----------3-------------------------|
----------------------------------------------------|

                                                     
-----------5L-5-----------2-----------------0-------|
--3--------3--------------2-----------3-------------|
--0--------0--------0-----0-----0-----------0-------|
--2-----2--------2-----2--2--2-----2-----2-----2----|
--0--0--------------------0-----------0-------------|
----------------------------------------------------|

                                                     
--2-----------------------2-----0-----0-----3-------|
--0-----------------------0-------------------------|
--0-----0-----------0-----0-------------------------|
--0--0-----0--0--0-----0--0--0-----0--0--0-----0----|
--0-----------0-----------0-----------0-------------|
--------------0-----------0-----------0-------------|

                                                     
--2-----------------------2-----------2-----5-------|
--2-----------------------2-----0-------------------|
--0-----0-----0-----0-----0--0-----0-----0-----0----|
--2--2-----2--2--2-----2--2-------------------------|
--3-----------3-----------3-------------------------|
----------------------------------------------------|

                                                     
--0-----------------2-------------------------------|
--0-------------------------------------------------|
--0-----0-----------------------0-----------0-------|
--3--3-----3-----3-----3-----3-----3-----3-----3----|
--1-----------1-----------1-----------1-------------|
----------------------------------------------------|

                                                     
--------------------0-----------------------2-------|
--3-----2-----0-----------2-----------3-------------|
--0-----------------------0-----0--------0----------|
--2--2-----2-----2-----2--2--2-----2----------------|
--0-----------------------0-------------------------|
----------------------------------------------------|

                                                     
----------------------------------------------------|
----------------------------------------------------|
--1g-1g-1g-1g-1g----1g----1g-1g-1g-1g---------------|
--3g-3g-3g-3g-3g----3g----3g-3g-3g-3g---------------|
--1g-1g-1g-1g-1g----1g----1g-1g-1g-1g-1g----3g------|
----------------------------------------------------|

                                                     
--------------------------------------------2-------|
--0g-0g-0g-0g-0--0g-3--3g-5--5g-0--0g-------0-------|
--0--0--0--0--0--0--0--0--0--0--0--0-----0----------|
--0g-0g-0g-0g-0g-0g-0g-0g-0g-0g-0g-0g-0-------------|
----------------------------------------------------|
----------------------------------------------------|

                                                     
----------------------------------------------------|
----------------------------------------------------|
--1g-1g-1g-1g-1g----1g----1g-1g-1g-1g---------------|
--3g-3g-3g-3g-3g----3g----3g-3g-3g-3g---------------|
--1g-1g-1g-1g-1g----1g----1g-1g-1g-1g-1g----3g------|
----------------------------------------------------|

                                                     
----------------------------------------------------|
--0g-0g-0g-0g-0g----0g----0g-0g-0g-0g-0g----0g------|
--0--0--0--0--0-----0-----0--0--0--0--0-----0-------|
--0g-0g-0g-0g-0g----0g----0g-0g-0g-0g-0g----0g------|
----------------------------------------------------|
----------------------------------------------------|

     =           =           =           =           =           =           =  
-----9-----------9-----------9-----------9-----------9-----------9-----------12-
--------------------------------------------------------------------------------
--------------------------------------------------------------------------------
--------------------------10----------------------------------------------10----
--0-----------8-----------------------8-----------0-----------8-----------------
--------------------------------------------------------------------------------

         =           
---------12---------|
--------------------|
--------------------|
--------------------|
------8-------------|
--------------------|

     =           =           =           =           =           =           =  
-----7-----------7-----------7-----------7-----------7-----------7-----------7--
--------------------------------------------------------------------------------
--------------------------------------------------------------------------------
--------------------------9-----------------------------------------------9-----
--------------7-----------------------7-----------------------7-----------------
--7-----------------------------------------------7-----------------------------

         =           
---------7----------|
--------------------|
--------------------|
--------------------|
------7-------------|
--------------------|

     =           =           =           =           =           =           =  
-----9-----------9-----------9-----------9-----------9-----------9--------------
-----------------------------------------------------------------------------10-
--------------------------------------------------------------------------------
--------------------------10----------------------------------------------10----
--0-----------8-----------------------8-----------0-----------8-----------------
--------------------------------------------------------------------------------

         =           
--------------------|
---------10---------|
--------------------|
--------------------|
------8-------------|
--------------------|

     =           =           =           =        =           =                 
--------------------------------------------------------------------------------
-----9-----------9-----------9-----------9--------9-----------9-----------------
--------------------------------------------------------------------------------
--------------7-----------9-----------7-----------------------------------------
--0-----------------------------------------------------------------------------
--------------------------------------------------------------------------------

                                                                          
--------------------|-----------------0-----0--------0-----------0-------|
--------------------|--------------12----7-----10----------7h-10---------|
--------------------|--12-7--7-------------------------------------------|
--------------------|----------------------------------------------------|
--------------------|----------------------------------------------------|
--------------------|----------------------------------------------------|

                                                     
-----------------0-----0--------0-----------0-------|
--------------12----7-----10----------7h-10---------|
--12-7--7-------------------------------------------|
----------------------------------------------------|
----------------------------------------------------|
----------------------------------------------------|

                                                     
----------------------------------------------------|
-----2--2-----0-------------------------------------|
--0-----------------0-----3-----------0h-3----------|
-----------------5-----5--------5-----------5-------|
----------------------------------------------------|
--3-----------------------3-------------------------|

                                                     
----------------------------------------------------|
-----2--2-----0-------------------------------------|
--0-----------------0-----3-----------0h-3----------|
-----------------5-----5--------5-----------5-------|
----------------------------------------------------|
--2-----------------------2-------------------------|

                                                     
----------------------------------------------------|
-----2--2-----0-------------------------------------|
--0-----------------0-----3-----------0h-3----------|
-----------------5-----5--------5-----------5-------|
----------------------------------------------------|
--3-----------3-----------3-----------3-------------|

                                                     
----------------------------------------------------|
-----2--2-----0-------------------------------------|
--0-----------------0-----3-----------0h-3----------|
-----------------5-----5--------5-----------5-------|
--0-----------0-----------0-----------0-------------|
----------------------------------------------------|

                                                     
----------------------------------------------------|
-----2--2-----0-------------------------------------|
--0-----------------0-----3-----------0h-3----------|
-----------------5-----5--------5-----------5-------|
----------------------------------------------------|
--3-----------3-----------3-----------3-------------|

                                                     
--------------------------------------2-----0-------|
-----2--2-----0-----------------------3s----2s------|
--0-----------------0-------------------------------|
-----------------5-----5----------------------------|
----------------------------------------------------|
--0-----0-----0-------------------------------------|

                                                          
--0--------5----------------|--------------------2--0----|
--3--3--3-----3-----2--3----|--------------------3s-2s---|
--0-----------0-----0--0----|--------0g----0g------------|
--3-----3-----3--3--2--0----|-----0g----0g----0g---------|
--3-----------3-------------|----------------------------|
-----------------------3----|----------------------------|

                                                          
--0--------2--0-----2-------|--------------------2--0----|
--3--3--------2s----3--3----|--------------------3--2----|
--3-----3-----3--------0----|--------0g----0g------------|
--0--------------------0----|--------0g----0g------------|
--3-----------0-------------|-----0g----0g---------------|
----------------------------|----------------------------|

                                                          
--0--------5--5--5--0-------|----------------------------|
--3--3--3-----2--2--2s-3----|--------------------0--3----|
--0-----------3-----3--0----|--------0g----0g----0--0----|
--3-----3--------------0----|--------0g----0g----3--3----|
--3-----------3-------------|-----0g----0g---------------|
-----------------------3----|----------------------------|

                                                          
--0-----0-----0--2--0-------|----------------------------|
--0--------3--0--------5----|----------------------------|
--3-----3-----5--------8----|-----8--------5g----5g------|
--3--3-----3--5--------7----|-----7--------7g----7g------|
--1g----------3--------5L---|--5--5L-5--5g-5g-5g-5g------|
----------------------------|----------------------------|

                                                          
--9-----9-----9-----9-------|--9-----9-----9-----9-------|
--7-----7-----7-----7-------|--7-----7-----7-----7-------|
--8-----8-----8-----8-------|--0-----0-----0-----0-------|
----------------------------|----------------------------|
----------------------------|--0--0--0--0--0--0--0--0----|
--8--8--8--8--8--8--8--8----|----------------------------|

                                        W                 
--9-----9-----9-----9-------|--9-----9-------------------|
--7-----7-----7-----7-------|--7-------------------------|
--8-----8-----8-----8-------|--0-------------------------|
----------------------------|--------------x-------------|
----------------------------|--5--5-----5--x-------------|
--8--8--8--8--8--8--8--8----|--------------x-------------|

                                                     
--2g-2g-2g----2g-2g-2g----2g-2g-2g----2g-2g-2g------|
-----------0g----------0g----------0g----------0g---|
--0-----------------------0-----------------3-------|
--0-----------------------------5--3----------------|
----------------------------------------------------|
----------------------------------------------------|

                                                     
--2g-2g-2g----2g-2g-2g----2g-2g-2g----2g-2g-2g------|
-----------0g----------0g----------0g----------0g---|
--0-----------------------0-----1-----3-----3-------|
----------------------------------------------------|
--3-------------------------------------------------|
----------------------------------------------------|

                                                     
--2g-2g-2g----2g-2g-2g----2g-2g-2g----2g-2g-2g------|
-----------0g----------0g----------0g----------0g---|
--------------------0-------------------------------|
--5-----------------------------------0-----2-------|
--1-------------------------------------------------|
----------------------------------------------------|

                                                     
--2g-2g----2g-------------0-----------------0-------|
--------------------------2-----------3-------------|
-----------3L-3-----3-----0-----0-----------0-------|
--3-----------------------2--2-----2-----2-----2----|
--0-----0--------0-----0--0-----------0-------------|
----------------------------------------------------|

                                                     
--2-----------------------2-----0-----0-----3-------|
--0-----------------------0-------------------------|
--0-----0-----------0-----0-------------------------|
--0--0-----0--0--0-----0--0--0-----0--0--0-----0----|
--0-----------0-----------0-----------0-------------|
--------------0-----------0-----------0-------------|

                                                     
--2-----------------------2-----------2-----5-------|
--2-----------------------2-----0-------------------|
--0-----0-----0-----0-----0--0-----0-----0-----0----|
--2--2-----2--2--2-----2--2-------------------------|
--3-----------3-----------3-------------------------|
----------------------------------------------------|

                                                     
--0-----------------2-------------------------------|
--0-------------------------------------------------|
--0-----0-----------------------0-----------0-------|
--3--3-----3-----3-----3-----3-----3-----3-----3----|
--1-----------1-----------1-----------1-------------|
----------------------------------------------------|

                                                     
--------------------0-----------------------2-------|
--3-----2-----0-----------2-----------3-------------|
--0-----------------------0-----0--------0----------|
--2--2-----2-----2-----2--2--2-----2----------------|
--0-----------------------0-------------------------|
----------------------------------------------------|

                                                     
----------------------------------------------------|
----------------------------------------------------|
--1g-1g-1g-1g-1g----1g----1g-1g-1g-1g---------------|
--3g-3g-3g-3g-3g----3g----3g-3g-3g-3g---------------|
--1g-1g-1g-1g-1g----1g----1g-1g-1g-1g-1g----3g------|
----------------------------------------------------|

                                                     
--------------------------------------------2-------|
--0g-0g-0g-0g-0--0g-3--3g-5--5g-0--0g-------0-------|
--0--0--0--0--0--0--0--0--0--0--0--0-----0----------|
--0g-0g-0g-0g-0g-0g-0g-0g-0g-0g-0g-0g-0-------------|
----------------------------------------------------|
----------------------------------------------------|

                                                     
----------------------------------------------------|
----------------------------------------------------|
--1g-1g-1g-1g-1g----1g----1g-1g-1g-1g---------------|
--3g-3g-3g-3g-3g----3g----3g-3g-3g-3g---------------|
--1g-1g-1g-1g-1g----1g----1g-1g-1g-1g-1g----3g------|
----------------------------------------------------|

                                                     
----------------------------------------------------|
--0g-0g-0g-0g-0g----0g----0g-0g-0g-0g-0g----0g------|
--0--0--0--0--0-----0-----0--0--0--0--0-----0-------|
--0g-0g-0g-0g-0g----0g----0g-0g-0g-0g-0g----0g------|
----------------------------------------------------|
----------------------------------------------------|

     =           =           =           =           =           =           =  
-----7-----------7-----------7-----------7-----------7-----------7-----------7--
--------------------------0-----------------------------------------------0-----
--------------------------------------------------------------------------------
--------------8-----------------------8-----------------------8-----------------
--------------------------------------------------------------------------------
--8-----------------------------------------------8-----------------------------

         =           
---------7----------|
--------------------|
--------------------|
------8-------------|
--------------------|
--------------------|

     =           =           =           =           =           =           =  
-----7-----------7-----------7-----------7-----------7-----------7-----------10-
--------------------------0-----------------------------------------------0-----
--------------0-----------------------0-----------------------0-----------------
--------------------------------------------------------------------------------
--0-----------------------------------------------0-----------------------------
--------------------------------------------------------------------------------

         =           
---------10---------|
--------------------|
------0-------------|
--------------------|
--------------------|
--------------------|

     =           =           =           =           =           =           =  
-----5-----------5-----------5-----------5-----------5-----------5-----------5--
--------------------------0-----------------------------------------------0-----
--------------------------------------------------------------------------------
--------------8-----------------------8-----------------------8-----------------
--------------------------------------------------------------------------------
--8-----------------------------------------------8-----------------------------

         =           
---------5----------|
--------------------|
--------------------|
------8-------------|
--------------------|
--------------------|

     =           =           =           =           =           =           =  
-----2-----------2-----------2-----------2-----------2-----------2-----------2--
--------------------------0-----------------------------------------------0-----
--------------0-----------------------0-----------------------0-----------------
--------------------------------------------------------------------------------
--0-----------------------------------------------0-----------------------------
--------------------------------------------------------------------------------

         =
---------2----------|--2--------2----------------|--2--------2----------------|
--------------------|--0-----0-------------------|--0-----0-------------------|
------0-------------|--1--1--------1-------------|--0--0--------0-------------|
--------------------|----------------------------|----------------------------|
--------------------|--1-------------------------|--0-------------------------|
--------------------|----------------------------|----------------------------|


--2--------2----------------|--2--------2L-2-------------||
--0-----0-------------------|--0-----0-------------------||
--1--1--------1-------------|--0--0----------------------||
----------------------------|----------------------------||
--1-------------------------|--0-------------------------||
----------------------------|----------------------------||

Login or Register to remove this ad.

3 comments on Call your name

Good

Much as I love how bassy my lowest string sounds when I tune down for this, there has to be an easier way.

Oh man this tuneing, I agree

Oh man this tuneing, I agree with Knightmare however seeing as how well you performed this in your video.. full marks!

Haha that tuning is crazy,

5

Haha that tuning is crazy, and i thought i was bad for detuned tabs lol. Sounds great!