Ads

Pandora Last Battle (Shin Megami Tensei: Persona) Guitar Tab

Submitted: Dec 14, 2011 by Hitoshura89 (Last updated: Dec 19, 2011)

4.5
Average: 4.5 (2 votes)
Download | Listen
Game: Shin Megami Tensei: Persona
Composer(s): Shoji Meguro, Hidehito Aoki, Kenichi Tsuchiya, Misaki Okibe
Style: Alternate picking, Transcription
Series: Megami Tensei

AutoScroll: Slow | Medium | Fast
Pandora Last Battle
Game: Persona Portable
Composer: Shoji Meguro
Tabbed By: Hitoshura89
Tuning: Standard
12-14-11

E|--------------------------------------------------------------|
B|--------------------------------------------------------------|
G|--------------------------------------------------------------|
D|--7----7---77---7----7----77---7----77------------------------|
A|--5----5---55---5----5----55---5----55--7-6-5---7-6-5--3------|
E|----00---0----0---00----0----0----0-----5-4-3---5-4-3--1------|


E|---------------------------------------------------------------------------------------------------|
B|---------------------------------------------------------------------------------------------------|
G|--------9-10-12-10-9H10P9-7-------------------------------------9-10-12-10-9H10P9-7---------7------|
D|-----7----------------------10~---10-12-7------10-12-7-------7----------------------10~--10--------|
A|------------------------------------------10~----------10~-----------------------------------------|
E|---------------------------------------------------------------------------------------------------|
                                                                   
E|-----------------------------|
B|-----------------------------|
G|-----------------------------|
D|--------10-7-----------------|
A|-------------8-10-7-8~-------|
E|---8-10----------------------|


E|-----------------------------------------------------------------------------------------|
B|---------------------------------------------17--17-18-17-15-----------------------------|
G|---------12--14--17--12~----------12--14--17---------------------17-14---------17--14----|
D|--12--14-------------------12--14-----------------------------17--------12--17-----------|
A|-----------------------------------------------------------------------------------------|
E|-----------------------------------------------------------------------------------------|


E|--------------------------------------------------------------------------|
B|--------------------17--17-18-17-15---------------------------------------|
G|---------12--14--17---------------------17-14---------------------15-14---|
D|--12--14-----------------------------17--------14-14-12---12--14----------|
A|--------------------------------------------------------------------------|
E|--------------------------------------------------------------------------|
Login or Register to remove this ad.

1 comment on Pandora Last Battle

Edit on the 3rd paragraph of the tab

E|---------------------------------------------------------------------------------------|
B|-------------------------------------------------------------17--17-18-17-15---------------------------|
G|------------12--14--17--12~------------12--14--17------------------------------17-14------14------17-----14--|
D|--12--14------------------------12--14------------------------------------------17--------------------17---|
A|---------------------------------------------------------------------------------------|
E|---------------------------------------------------------------------------------------|