Ads

Pandora battle (Shin Megami Tensei: Persona) Guitar Tab

Submitted: Jul 22, 2021 by heatagni (Last updated: Jul 29, 2021)

0
Download | Listen
Game: Shin Megami Tensei: Persona
Composer(s): Shoji Meguro, Hidehito Aoki, Kenichi Tsuchiya, Misaki Okibe
Style: Transcription
Series: Megami Tensei

AutoScroll: Slow | Medium | Fast
E|--------------------------------------------------------------|
B|--------------------------------------------------------------|
G|--------------------------------------------------------------|
D|--7----7---77---7----7----77---7----77------------------------|
A|--5----5---55---5----5----55---5----55--7-6-5---7-6-5--3------|
E|----00---0----0---00----0----0----0-----5-4-3---5-4-3--1------|


E|---------------------------------------------------------------------------------------------------|
B|---------------------------------------------------------------------------------------------------|
G|--------9-10-12-10-9H10P9-7-------------------------------------9-10-12-10-9H10P9-7---------7------|
D|-----7----------------------10~---10-12-5------10-12-5-------7----------------------10~--10--------|
A|------------------------------------------8~----------8~-------------------------------------------|
E|---------------------------------------------------------------------------------------------------|
                                                                   
E|-----------------------------|
B|-----------------------------|
G|-----------------------------|
D|--------8--------------------|
A|-----------12--8-10-7-8~-----|
E|---10-13---------------------|


E|------------------------------------------------------------------------------------------------------------------|
B|------------------------------------------------------------17--17-18-17-15---------------------------------------|
G|------------12--14--17--12~------------12--14--17-------------------------------17-14------------------17-14------|
D|--12--14------------------------12--14-------------------------------------19-17-------------15--19--17-----------|
A|------------------------------------------------------------------------------------------------------------------|
E|------------------------------------------------------------------------------------------------------------------|




E|------------------------------------------------------------------------------|
B|--------------------17--17-18-17-15-------------------------------------------|
G|---------12--14--17-------------------------17-14---------------------15-14---|
D|--12--14-----------------------------19--17--------14-14-12---12--15----------|
A|------------------------------------------------------------------------------|
E|------------------------------------------------------------------------------|
Login or Register to remove this ad.