Ads

Battle (Shin Megami Tensei: Persona) Guitar Tab

Submitted: Mar 28, 2021 by thunderbulb (Last updated: Apr 05, 2021)

0
Download | No audio :(
Game: Shin Megami Tensei: Persona
Composer(s): Shoji Meguro, Hidehito Aoki, Kenichi Tsuchiya, Misaki Okibe
Style: 2 or more instruments, Alternate picking
Series: Megami Tensei

AutoScroll: Slow | Medium | Fast
SMT- Battle Theme

Pattern for Rhythm parts: A A B

  Rhythm A
e|---------------------------------------------------------------------------|
B|---------------------------------------------------------------------------|
G|--------------------------------7-7-8--------------------------------------|
D|-2~-5-7---2~-5-4-3--2~-5-7---2~-7-7-8--------------------------------------|
A|-2~-5-7---2~-5-4-3--2~-5-7---2~-5-5-6--------------------------------------|
E|-0~-3-5---0~-3-2-1--0~-3-5---0~--------------------------------------------|

  Rhythm B
e|---------------------------------------------------------------------------|
B|---------------------------------------------------------------------------|
G|---------------------------------------------------------------------------|
D|-5~-7~-----------------------3-2-----------------------3-2-----------------|
A|-3~-5~-2-2-2-2---2-2-2-2-2-2-1-0-2-2-2-2---2-2-2-2-2-2-1-0-----------------|
E|-------0-0-0-0-3-0-0-0-0-0-0-----0-0-0-0-3-0-0-0-0-0-0---------------------|

e|---------------------------------------------------------------------------|
B|---------------------------------------------------------------------------|
G|---------------------------------------------------------------------------|
D|-5~-7~-----------------------3-2-------------------------------------------|
A|-3~-5~-2-2-2-2---2-2-2-2-2-2-1-0-2-2-2-2---2-2-2-2-2-2---2-2~--------------|
E|-------0-0-0-0-3-0-0-0-0-0-0-----0-0-0-0-3-0-0-0-0-0-0-3-0-0~--------------|

The lead section is a bit hard to hear with the layered midi going on, but use
this as a rough guide, loop the sections above and mess about in e minor.

  Lead A
e|----------------------------------------------------------------------------|
B|-5~--------------------------------------------------------8-----------8---8|
G|----4h7p4---4--------------------------------4-5-----7---7-----7------------|
D|----------7---7-5-4------------------2-4-5-7------/9---9-----9---7b-/9---9--|
A|--------------------7~---------2-3-5----------------------------------------|
E|-----------------------0-2-3-5----------------------------------------------|

  Lead B
e|---------------------------------------------------------------------------|
B|-----------------------------------------8---11-10---8---------------------|
G|-----------------4-5-------------5-7--9b---9-------9---9\------------------|
D|-----------4-5-7-----------5-7-9-------------------------------------------|
A|-7\--3-5-7-----------5-7-9-------------------------------------------------|
E|---------------------------------------------------------------------------|
Login or Register to remove this ad.

1 comment on Battle

Correction

Game should be Shin Megami Tensei not Persona