Ads

Heaven (Shin Megami Tensei: Persona 4) Bass Tab

Submitted: Feb 28, 2014 by Litehawk

5
Average: 5 (1 vote)
Download | Listen
Game: Shin Megami Tensei: Persona 4
Composer(s): Shoji Meguro
Style: Transcription

AutoScroll: Slow | Medium | Fast
Heaven
Persona 4
Song by Hirata Shihoko
Composer by Shoji Meguro
Tabbed by Andrew Riley @ [email protected]
2/25/2014

Redistribution allowed and encouraged as long as my information is kept with it


Intro

    w     w     w     h  h     w     h  h     w     h  h
G|-----|-----|-----|--------|-----|--------|-----|--------|
D|-----|-----|-----|--------|-----|--------|-----|--------|
A|-----|-----|-----|--3-----|-----|-----4--|-----|--3-----|
D|--8--|--1--|--6--|-----3--|--8--|--6-----|--4--|-----3--|

Pre-verse

    q  q  q  q     q  q  q  q     q  q  q  q     q  q  q  q   
G|--------------|--------------|--------------|--------------|
D|--------------|--------------|--------------|--------------|
A|-----3--4--8--|--6-----------|--------6--4--|--3-----------|
D|--8-----------|-----3--4--5--|--6--6--------|-----4--3--6--|

    q  q  q  q     q  q  q  q     q  q  q   q     q  q  q  q 
G|--------------|--------------|---------------|--------------|
D|--------------|--------------|---------------|--------------|
A|-----3--4-----|-----2--4--8--|--9--8---------|--3-----------|
D|--8--------3--|--6-----------|--------11--8--|-----4--3--6--|


Verse 1

    w     w     w     q. q  q.    h.+e e     h.  q     w     h  q  q     w     h.  q   
G|-----|--r--|-----|--r--------|----------|---------|-----|--r--------|-----|---------|
D|-----|--r--|-----|--r--------|----------|---------|-----|--r--------|-----|---------|
A|-----|--r--|-----|--r--3--4--|-------6--|--6---6--|-----|--r--3-----|-----|--6------|
D|--1--|--r--|--8--|--r--------|--1-------|---------|--8--|--r-----6--|--1--|------1--|

    h.+e  e     q. q  e e e     h. e e     h+e e  e  e    h+e  e e  e     q  q  q  q
G|-----------|---------------|----------|---------------|--------------|--------------|
D|-----------|---------------|----------|---------------|--------------|--------------|
A|--1--------|--1--1--3-4----|-----1-3--|--10-----1--3--|--8---8-11-9--|--------3-----|
D|--------3--|------------6--|--5-------|------5--------|--------------|--3--7-----3--|

Chorus 1

    q  q  q  q     q  q  q  q     q  q  q  q     q  q  q  q   
G|:-------------|--------------|--------------|--------------|
D|:-------------|--------------|--------------|--------------|
A|:----3--4--8--|--6-----------|--------6--4--|--3-----------|
D|:-8-----------|-----3--4--5--|--6--6--------|-----4--3--6--|

    q  q  q  q     q  q  q  q     q  q  q   q     q  q  q  q    
G|--------------|--------------|---------------|--------------:|
D|--------------|--------------|---------------|--------------:|
A|-----3--4-----|-----2--4--8--|--9--8---------|--3-----------:|
D|--8--------3--|--6-----------|--------11--8--|-----4--3--6--:|


Piano part after Chorus 1

    w     w     w     q. q  q.    h.+e e     h.  q     w     h  q  q   
G|-----|--r--|-----|--r--------|----------|---------|-----|--r--------|
D|-----|--r--|-----|--r--------|----------|---------|-----|--r--------|
A|-----|--r--|-----|--r--3--4--|-------6--|--6---6--|-----|--r--3-----|
D|--1--|--r--|--8--|--r--------|--1-------|---------|--8--|--r-----6--|

Verse 2

    w     w     w     q. q  q.    h.+e e     h.  q     w     h  q  q     w     h.  q   
G|-----|--r--|-----|--r--------|----------|---------|-----|--r--------|-----|---------|
D|-----|--r--|-----|--r--------|----------|---------|-----|--r--------|-----|---------|
A|-----|--r--|-----|--r--3--4--|-------6--|--6---6--|-----|--r--3-----|-----|--6------|
D|--1--|--r--|--8--|--r--------|--1-------|---------|--8--|--r-----6--|--1--|------1--|


    h.+e  e     q. q  e e e     h. e e     h+e e  e  e     h+e e e  e     q  q  q  q
G|-----------|---------------|----------|---------------|--------------|--------------|
D|-----------|---------------|----------|---------------|--------------|--------------|
A|--1--------|--1--1--3-4----|-----1-3--|--10-----1--3--|--8---8-11-9--|--------3-----|
D|--------3--|------------6--|--5-------|------5--------|--------------|--3--7-----3--|


Chorus 2 (Rest for the first runthrough)

Second runtrough

     w     w     w     h  q  q     h. e e     h  h     w     h  q  q
G|------|-----|-----|-----------|----------|--------|-----|-----------|
D|------|-----|-----|-----------|----------|--------|-----|-----------|
A|---1--|--6--|-----|--3--------|--1--1-0--|-----4--|-----|--3--------|
D|------|-----|--6--|-----3--6--|----------|--6-----|--4--|-----3--6--|

third runthrough

      q  q  q  q     q  q  q  q     q  q  q  q     q  q  q  q   
G|:---------------|--------------|--------------|--------------|
D|:---------------|--------------|--------------|--------------|
A|:------3--4--8--|--6-----------|--------6--4--|--3-----------|
D|:---8-----------|-----3--4--5--|--6--6--------|-----4--3--6--|

     q  q  q  q     q  q  q  q     q  q  q   q     q  q  q  q     x3 until fade out
G|---------------|--------------|---------------|--------------:|
D|---------------|--------------|---------------|--------------:|
A|------3--4-----|-----2--4--8--|--9--8---------|--3-----------:|
D|---8--------3--|--6-----------|--------11--8--|-----4--3--6--:|

Login or Register to remove this ad.