A Corner of Memories (Shin Megami Tensei: Persona 4) Guitar Tab

Submitted: Oct 18, 2009 by Lost Melodies

5
Average: 5 (2 votes)
Download | Listen
Game: Shin Megami Tensei: Persona 4
Composer(s): Shoji Meguro
Style: Arrangement, Fingerstyle

AutoScroll: Slow | Medium | Fast
                            A Corner of Memories                               
                         Shin Megami Tensei:Persona 4


Arranjed by Lost Melodies                                           Shoji Meguro
Ac. Gtr.



                                                                      
                     ^ 
E||---6-----8----|-----------8--6-----8-----|-------------------------|
B||--------------|-----------8--------------|---------------------4-6-|
G||*-------------|--10----8--------------8--|--L--------10------------|
D||*--8----10----|---8-------L--8----10-----|-----5--8--12------------|
A||--------------|---8-------L-----------6--|--L----------------------|
E||--------------|--------------------------|-----3--6--10------------|


                                                                            
                                                     ^
-------------------------|------------6-----8----|-----------8--6-----8--11--|
--8--6--4--3----4--3--3--|--L--------------------|-----------8---------------|
-------------------------|-----5-----------------|--10----8------------------|
-----8-----5----L--L--5--|--L--5------8----10----|---8-------L--8----10--13--|
--8-----3--3----L--L--3--|--L--3-----------------|---8-------L---------------|
-------------------------|-----------------------|---------------------------|


      
--L--10----6--L--------|-----3--3-----------3--3--|-------------6-----8----|
-----------------------|--------------------------|--------3---------------|
-----------------------|--5-----5--3-----5-----5--|--3-----3---------------|
--L--12----8--L--------|-----------3--------------|--3-----3----8----10----|
-----------------------|--------------------------|------------------------|
-----------------------|--4-----L--------4-----L--|------------------------|


                                                                              
      
-----------8--6-----8-----|-------------------------|-------------------------|
-----------8--------------|---------------------4-6-|--8--6--4--3----4--3--3--|
--10----8--------------8--|--L--------10------------|-------------------------|
---8-------L--8----10-----|-----5--8--12------------|-----8-----5----L--L--5--|
---8-------L-----------6--|--L----------------------|--8-----3--3----L--L--3--|
--------------------------|-----3--6--10------------|-------------------------|


                                                                          
                           ^   
------------6-----8----|-----------8--6-----8--11--|--L--10----6--L--------|
--L--------------------|-----------8---------------|-----------------------|
-----5-----------------|--10----8------------------|-----------------------|
--L--5------8----10----|---8-------L--8----10--13--|--L--12----8--L--------|
--L--3-----------------|---8-------L---------------|-----------------------|
-----------------------|---------------------------|-----------------------|


     
-----3--3-----------------|------------------------|--3--4--6--6----4--3-----|
-----------------4--3--3--|--L--------3--4---------|----------------------4--|
--5-----5--3--L-----------|-----5--------L---------|--3-----L----------3--L--|
-----------3--L--------5--|--L--5--5-----L---------|-----------5----L--------|
-----------------------3--|--L--3--------L----3----|-------------------------|
--4-----L-----------------|------------------------|-------------------------|


     
-------6--------------|--3--4--6--6----4--3-----|------------------------|
--6--------------6----|-----------4----------4--|--6----6---4-3--4----L--|
------------8---------|--------5--5-------------|--0----7---L-5--L----3--|
--8----L----8----L----|--3--L----------------3--|------------------------|
----------------------|-------------------------|------------------------|
----------------------|-------------------------|------------------------|


                                                                        
                                                                      ^  
--3--4--6--6----L--3--4--|--6--6------3--4--6----|--3--L-----------3--1--|
-------------------------|-----------------------|-----1--------1-----3--|
--1--L-----0----1-----L--|------------3--L--0----|--1--L--------1-----3--|
-------------------------|--8--8-----------------|--3--L-----------3-----|
-------------------------|-----------------------|-----------------------|
-------------------------|-----------------------|-----------------------|


           
                     
--L-----------------||
--L-----------------||
--L----------------*||
-------------------*||
--------------------||
--------------------||




Tablature Legend
----------------
L - tied note
> - accentuded note
^ - brush up
v - brush down

Login or Register to remove this ad.

2 comments on A Corner of Memories

Awesome!

Great tab!

:)

Good job, thanks for tabbing it!