A Corner of Memories (Shin Megami Tensei: Persona 4) Guitar Tab

Submitted: Oct 24, 2017 by Rupert484

0
Download | Listen
Game: Shin Megami Tensei: Persona 4
Composer(s): Shoji Meguro
Style: Arrangement, Fingerstyle

AutoScroll: Slow | Medium | Fast
Corner of Memories                                       
Shin Megami Tensei: Persona 4

Shoji Meguro
Piano transcription by TNRea
Modified and tabbed by Rupert484


Let everything ring if you can unless it's staccato (*).
Essential notes to let ring are marked (L). Everything else is implied.

Standard tuning
Tempo 95
Capo 1st fret
              Pickup    [A]
     H        Q    Q         Q    E  E  E  E  E   E      E  E  E  E  E  E  E  S S  
E||-----------5----7----||---0----------5-----7--10--|---L----------------------0-|
B||---------------------||---5-------0--------0------|------------------------3---|
G||---------------------||o----------0------------7--|---L-----6-----------2------|
D||-----------7----9----||o-------0-----7------------|---------7--7-----4---------|
A||---------------------||-----------------9--7---9--|---L--9--------------4------|
E||---------------------||---3-----------------------|----------------------------|



  E  E  E  Q    E  E  E     E  E  E   E  Q    Q       Q    E  E  E  E  E   E   
--2--0-------------------|---------------5----7----|--0----------5-----7--10--|
--------3--2----3--2--2--|--L--0--------------0----|----------0--------0------|
-----0--4--2-------------|---------------5---------|----------0------------7--|
-------------------------|--------------------0----|--2----0-----7------------|
----------------4-----2--|--L-----0h--2--3---------|----------------9--7---9--|
--0--------2-------------|-----2-------------------|--3-----------------------|

                         ┌
                          1st ending
                                     *                *              *          
   E  E  E  Q    E  Q       E  E  E  Q    E  E  E     Q    E   E  E  E  Q       
---L--9-----5------------|-----2--2--0-------2--2--|--0-----------5-----7-----||
-------------------------|--0-----0-------0-----0--|--------------------0-----||
---L--6-----2-------2----|--0-----0-------0-----0--|-------2------2--4-------o||
-----------------4-------|--2-------------2--------|-------2---------0-------o||
------9--0--0-------4----|-----------4-------------|--4----2h--4--------------||
---L---------------------|--0-----0--2----0-----0--|--2-----------------------||

┌
 2nd ending                                        [B]
  E  E  E  Q    E  E  E     E  E  E   E  Q    Q         E  E  E  Q    E  E  E   
-----2--2--0-------------|-------------------------||--0g2--3--5--5----3--2-----|
--0-----0-------3--2--2--|--L--0-------------------||------------------------3--|
--0-----0----------------|-------------------------||----0--------0-------------|
--2----------------------|---------------0---------||-------------0-------0-----|
-----------4----------2--|--L-----2h--4--L----2----||---------------------------|
--0-----0--2----2--------|-----2--L----------------||---------------------------|



  Q    Q    Q    Q         E  E  E  Q    E  E  E     Q    E.  S E  E  E  E   
--0----5---------0----|--0g2--3--5--5----3--2-----|--0----0-----------------|
------------3---------|------------------------3--|-----------3-2--3--------|
----------------------|---------------------------|-------------------------|
----------------------|-------------2-------------|-------------------------|
------------2---------|-------------2-------2-----|-------4-----2--------2--|
--2-------------------|----0----------------------|--2----------------2-----|



                                                                      *      
    E  E  E  Q.     E  E     E  Q    E  E  E  Q       E  Q    Q    E  E  E   W
--0g2--3--5--5------2--3--|--5--5-------2--3--5----|--2---------------2--0--|L---|
--------------------------|----------3-------------|-----0---------0--------|----|
----0--------0------------|------------------------|------------------------|----|
-------------0------0-----|------------------------|----------2-------------|----|
--------------------------|-------------2----------|----------2----2-----4--|L---|
--------------------------|--2---------------------|--0---------------0--2--|L---|




Duration Legend
---------------
W - whole
H - half
Q - quarter
E - 8th
S - 16th
. - note dotted


Tablature Legend
----------------
L - tied note
g - grace note
* - staccato
h - hammer on
||o - repeat start
o|| - repeat end
┌ - endings
Login or Register to remove this ad.