Unavoidable Battle (Shin Megami Tensei: Persona 3) Guitar Tab

Submitted: Feb 27, 2012 by Hitoshura89

5
Average: 5 (1 vote)
Download | Listen
Game: Shin Megami Tensei: Persona 3
Composer(s): Shoji Meguro
Style: Alternate picking, Transcription

AutoScroll: Slow | Medium | Fast
Unavoidable Battle
Game: Shin Megami Tensei: Persona 3
Composer: Shoji Meguro
Tabbed by: Hitoshura89
Tuning: E Standard


*=Palm Muting
B=Bend
R=Release
P=Pull Off
/=Slide Down
\=Slide Up

Intro

E|------------------------------------------------------------------------------|
B|------------------------------------------------------------------------------|
G|------------------------------------------------------------------------------| X2
D|------------4------------------7-6-4--------------4-------------7-6-4------6--|
A|--6-6-6-6-6-2--4-6---6-6-6-6-6-5-4-2-4--6-6-6-6-6-2--4-6--6-6-6-5-4-2-4-6--4--|
E|--4-4-4-4-4----2-4---4-4-4-4-4-------2--4-4-4-4-4----2-4--4-4-4-------2-4-----|


Pre Verse

E|----------------------------------------------------------|
B|----------------------------------------------------------|
G|----------------------------------------------------------| X2
D|----------------------------------------------------------|
A|--6--6-6--6--6-6--6--6-6--6--6-6--6--6-6--6--6-6--6-6--7--|
E|--4--4-4--4--4-4--4--4-4--4--4-4--4--4-4--4--4-4--4-4--5--|
       * *     * *     * *     * *     * *     * *

Verse 1


E|-----------------------------------------------------------------------------------------------------------|
B|---------------------------------------------------------------------------6B7R-4-6--4-4-------------------|
G|----------4---6B7R-4-6B4R-4---------4---6B7R-4--6/15-\----------4---6B7R-4------------6--4-6---4-----------|
D|------4-6---6-------------------4-6---6---------------------4-6---6--------------------------7---6-6-6--7--|
A|--4-6-----------------------4-6-------------------------4-6----------------------------------------6-6--7--|
E|---------------------------------------------------------------------------------------------------4-4--5--|



Verse 2

E|-----------------------------------------------------------------------------------------------------------|
B|---------------------------------------------------------------------------6B7R-4-6--4-4-------------------|
G|----------4---6B7R-4-6B4R-4---------4---6B7R-4----------------4-4---6B7R-4------------6--4-6---4-----------|
D|------4-6---6-------------------4-6---6---------11\---------6-----6--------------------------7---6-6-6--7--|
A|--4-6-----------------------4-6-------------------------4H6----------------------------------------6-6--7--|
E|---------------------------------------------------------------------------------------------------4-4--5--|





Verse 3 (End)


E|--7P4--------------------------------------------------4----------------------------|
B|------7--------------------------------------------------7-4------------------------|
G|--------7-6--4--4-------4-6-7--6---4---7--6--4-4----4--------6--6--4--4--------4-2--|
D|-------------------6--6---------------------------6--------------------------4---2--| X2
A|-------------------------------------------------------------------------4-6-----0--|
E|------------------------------------------------------------------------------------|
Login or Register to remove this ad.