Ads

The Path Was Closed (Shin Megami Tensei: Persona 3) Guitar Tab

Submitted: May 05, 2013 by The Ripper

5
Average: 5 (1 vote)
Download | Listen
Game: Shin Megami Tensei: Persona 3
Composer(s): Shoji Meguro
Style: Arrangement, Fingerstyle

AutoScroll: Slow | Medium | Fast
                                            The path was closed
                                                 Persona 3
                                          Composed Shōji Meguro
                                    Tabbed by the Ripper  april 28th 2013


 H         Q     Q       E  E  E   E  Q.     S S  
E||--10---------9----10----|--7------------L------7-9-|
B||--10--------------------|--7------------L----------|
G||--11--------11-----L----|---------------7----------|
D||------------------------|--------9--11-------------|
A||------------------------|-----9--------------------|
E||--10---------9-----L----|--7-----------------------|


    E  E  E  E   E   E   E   E     E  E  E  E  Q    Q     
|--10------------9------14---L--|--7-----------L---------|
|---7-----L--7--10--------------|--------------0----2----|
|-------------------------------|-----------0-------2----|
|---------9---------------------|--------0---------------|
|------9---------0------12------|------------------------|
|---7---------------12------12--|--3--L-------------2----|


   E  E  E  E   E  E   E   S  S    E  E  E  E  E  E  E  E   
|--------------14------L--12-10-|--9--------------L--5-----|
|--0--------L------0-------0--L-|-----------------------8--|
|--0--------L--11------L--------|--------0-----6--9--------|
|--------0------------12--------|-----------7--------------|
|-----------7--10---------------|--0--7--------------------|
|--0--7-------------------------|--------------------------|


   E  E  E  E   E   E  E   S S    E  E  E  E  E  E   E  E   
|--2--------L--12------L--10-9-|--7--------L--9--L--10--L--|
|------------------------------|--------------7--L---7--L--|
|----------------------9-------|---------------------------|
|--------2--4---7--11-----11-L-|--------7--9---------7-----|
|-----4------------------------|-----9--------0--7------0--|
|--2---------------------------|--7------------------------|


   E  E   E  E  E  E   E  E      W                   W                  
|--3--L--10--L--9--L--10--L--|--10----------------|-------------------||
|--3--L---7--L---------8--L--|---8----------------|--7----------------||
|---------0-----9--L---0-----|---9----------------|--7----------------||
|-----0------0---------------|--------------------|--0----------------||
|---------------0---------0--|---7----------------|-------------------||
|--3---------------9---------|--------------------|-------------------||





                         Legend
	             ---------------
			W - whole
			H - half
			Q - quarter
			E - 8th
			S - 16th
			T - 32nd
			X - 64th
			. - note dotted
			|-n-|  - n-tuplets
			L - tied note

                                 
Login or Register to remove this ad.