Memories of the School (Shin Megami Tensei: Persona 3) Guitar Tab

Submitted: Feb 06, 2012 by Hitoshura89

5
Average: 5 (2 votes)
Download | Listen
Game: Shin Megami Tensei: Persona 3
Composer(s): Shoji Meguro
Style: Transcription

AutoScroll: Slow | Medium | Fast
Memories of the School (Arranged for Guitar)
Game:Shin Megami Tensei: Persona 3
Composer:Shoji Meguro
Tabbed by Hitoshura89
Tuning: E Standard

Intro/Verse

E|--19-17------------------------------------------------------------|
B|--------17-17-15-----15-17-19----15--17-15-14-14-14--15-14--14-12--|
G|------------------16----------16-----------------------------------|
D|-------------------------------------------------------------------|
A|-------------------------------------------------------------------|
E|-------------------------------------------------------------------|

E|--------19-17-----------------------17-19-22-21-17----------------|
B|--12-15-------17-17-15-----15-17-19----------------19--17--15-----|
G|------------------------16------------------------------------14--|
D|------------------------------------------------------------------|
A|------------------------------------------------------------------|
E|------------------------------------------------------------------|


Verse 2

E|--19-17------------------------------------------------------------|
B|--------17-17-15-----15-17-19----15--17-15-14-14-----15-14-----12--|
G|------------------16----------16-----------------14---------14-----|
D|-------------------------------------------------------------------|
A|-------------------------------------------------------------------|
E|-------------------------------------------------------------------|

E|--------19-17-----------------------17-19-22-21-17----------------|
B|--12-15-------17-17-15-----15-17-19----------------19--17--15-----|
G|------------------------16------------------------------------14--|
D|------------------------------------------------------------------|
A|------------------------------------------------------------------|
E|------------------------------------------------------------------|


Verse 3(Ending)

E|---------17--17--------------------17--17------------17--17--------------------17--17--------------------|
B|--15--17--------15-17--17-15-14-15--------15-17--15---------15-17--17-15-14-15---------15-17--15--14--15-|
G|---------------------------------------------------------------------------------------------------------|
D|---------------------------------------------------------------------------------------------------------|
A|---------------------------------------------------------------------------------------------------------|
E|---------------------------------------------------------------------------------------------------------|
Login or Register to remove this ad.

4 comments on Memories of the School

hell yeah

5

hell yeah

A little help? x)

5

It's a great tab, however I can't seem to make it work on guitar pro 5? Because it's on .txt. How do I convert it to .gp5, or something? D:

You can import tabs to gp5 by

You can import tabs to gp5 by going to file->import->ASCII, but only it is only useful if the tab has rhythm notations. And even then the program doesn't always work and the rhythms get screwed up

Yeah, I was looking for a way

Yeah, I was looking for a way for it to work without the rhythms ;___;