Ads

Memories of the City (Guitar Solo) (Shin Megami Tensei: Persona 3) Guitar Tab

Submitted: Jul 26, 2014 by Orpheus010 (Last updated: Jul 28, 2014)

5
Average: 5 (1 vote)
Download | Listen
Game: Shin Megami Tensei: Persona 3
Composer(s): Shoji Meguro
Style: Transcription

AutoScroll: Slow | Medium | Fast
(/) Slide Up  (\) Slide Down  (h) Hammer On  (p) Pull Off  (b) Bend (r) Release (v) Vibrato

E|----------------------------------------------------------------------------------------------
B|----------------------------------------------------------------------------------13-14-13-14-
G|--/15~~13h15/18-18-17-17--------------------------------------------------------13------------
D|------------------------18-18-15-15-------------------------------13-15-16-15-16--------------
A|-----------------------------------16-15h16p15------13-15-16-15-16----------------------------
E|----------------------------------------------16--16------------------------------------------



E|----------------------------------------------------------------
B|--14/16~~-16p14-16-/18-14~-14p13-14-/21~-21--21-21-19--18h19p18-
G|----------------------------------------------------------------
D|----------------------------------------------------------------
A|----------------------------------------------------------------
E|----------------------------------------------------------------



E|----------------------------------------------------------------------------------------------
B|----------------------------------------------------------------------------------------------
G|---15/17-15~~-15-17-18--18-18/22-20-17------------------------17-17-15~-15-17-18--18-18/22----
D|15------------------------------------18-16-16h18-18p16-15--15--------------------------------
A|----------------------------------------------------------------------------------------------
E|----------------------------------------------------------------------------------------------


E|----------------------------------------------------------------------------------------------
B|----------------------------------------------------------------------------------------------
G|-20v17v17v15v---------------------------------------------------------------------------------
D|----------------------------------------------------------------------------------------------
A|----------------------------------------------------------------------------------------------
E|----------------------------------------------------------------------------------------------
Login or Register to remove this ad.

1 comment on Memories of the City (Guitar Solo)

Awesome!

5

Great tab for a great song ^^ I remember playing P3P and hanging around town to hear this song; such an emotional piece!