Ads

Living With Determination (Shin Megami Tensei: Persona 3) Guitar Tab

Submitted: Oct 04, 2009 by Lost Melodies

5
Average: 5 (3 votes)
Download | Listen
Game: Shin Megami Tensei: Persona 3
Composer(s): Shoji Meguro
Style: Arrangement, Fingerstyle

AutoScroll: Slow | Medium | Fast
                          Living With Determination                             


                                                                  Meguro Masashi
Guitar



              ^                    ^                  
      Q       H.           Q       H.           Q     
E||---4----|--3------------1----|---------------3----|
B||---6----|--4------------3----|--4------------4----|
G||*--7----|--5------------3----|--5------------5----|
D||*--0----|--------------------|--6-----------------|
A||--------|--3------------1----|---------------3----|
E||--------|--------------------|--4-----------------|


  ^                                                                       
               |-----3----|                                               
  H.           S  S  E  S S    H.           E  E     E  E  H        Q     
--1-------------------------|------------------6--|--6--4-----------4----|
--3------------4h-6p-4--3-4-|--4------------4-----|--------4-------------|
--3-------------------------|--5------------------|--5-----L-------------|
----------------------------|--6------------------|--6-----L-------------|
--1-------------------------|---------------------|----------------------|
----------------------------|--4------------------|----------------------|


  E  E  H.              E  E  H        E  E     H        Q     Q     
--3------------------|--------------------1--|----------------------|
-----6---------------|--7--6-----------0-----|--4--------3-----9----|
--------5------------|-----------------------|--5--------4----10----|
--5-----L------------|--------9--------------|--6--------5----12----|
--3-----L------------|--8-----L--------------|----------------------|
---------------------|--6-----L--------------|----------------------|


                                                             |-----6-----|  
   H        Q    Q       H.            Q       H        Q    S   S  E  S S  
----------------------|---------------------|------------------------------|
---8--------L----6----|--4-------------8----|--6--------L------------------|
---8--------8----7----|--5-------------8----|--7--------L----8h-10p-8--7-8-|
--10--------L----8----|--6------------10----|--8--------8------------------|
----------------------|---------------------|------------------------------|
---8--------L----6----|--4-------------8----|--6--------L------------------|


   H         Q    E  S  S     E   E  H         Q        E   E   H.            
--------------------------|---8---------------------|------------------------|
-----------------------11-|------11-----------11----|---8--------------------|
---8---------8----8--8----|----------8--------------|------10----------------|
--10---------L------------|--10---L-----------------|--10---L--10------------|
--------------------------|-------------------------|------------------------|
---8---------L------------|---8------L--------------|------------------------|


                                                   ^                    
  E   E  H        E   E      H        H            H        E.  E.  E   
-------------------------|---------------------|------------6-------4--|
--7----------------------|---------------------|----------------4------|
-----10--------------10--|---8--------7--------|-----------------------|
--9---L--9--------9------|--10--------9--------|--10--------6-------L--|
-------------------------|---------------------|--11-------------------|
-------------------------|---------------------|--11-------------------|


  H        E.  E.  E     H        Q.     S S    E.  E.  E  E.  E.  E   
-----------3----------|--1-------------------|------------------------|
---------------1---4--|-----------3------4-6-|--3---3---4--3----------|
----------------------|--0-------------------|--0-------L------3---1--|
--3-------------------|----------------------|-------------0-------L--|
-----------3-------L--|----------------------|------------------------|
----------------------|----------------------|------------------------|


  H        E.  E.  E     H        E.  E.  E     H        Q.     S S  
-----------6-------4--|-----------3----------|--1-------------------|
---------------4------|---------------1---4--|-----------3------4-6-|
----------------------|----------------------|--0-------------------|
--1--------6-------L--|--3-------------------|----------------------|
----------------------|-----------3-------L--|----------------------|
--1-------------------|----------------------|----------------------|


  This part is  litlle tough to play...                      
  E.                                    S E  E  E.  S E  E   
------------------------------------------------6--------4--|
--3-------------------------------------4-----------4-------|
---------------------------------------------3--------------|
--3---------------------------------------5-----3-----5-----|
------------------------------------------------------------|
------------------------------------------------------------|


  but pratice makes perfect!!!                                      
                                             ^                      
  H                            E.  E.  E     Q.     S S E.  E.  E   
--1----------------------------3----------|------------------------|
--1--------------------------------1---4--|--6------6-4-3---3---4--|
------------------------------------------|--5---------------------|
--1---------------------------------------|--3---------------------|
-------------------------------3-------L--|--L----------3-------L--|
------------------------------------------|------------------------|


  E.  E.  Q    E  E  E     E  E  E  E  E.  E.  E     E  E   E   E  E.  E.  E   
------------------------|--------------6-------3--|-----8--11--16--3----------|
--3---------------------|--3---------------4------|--6-----------------1---4--|
------3---0-------0--3--|-----3--0----------------|---------------------------|
--0------------3--L-----|-----------3--6---L------|---------------------------|
------------------------|--3-----L----------------|----------------3-------L--|
------------------------|-------------------------|---------------------------|


                                                     ^                   
             |----3----|                                                 
  Q.     S S Q    Q    Q       Q    Q    H           W                   
----------------------------|---------------------|--------------------||
--L------6-4-3----3----4----|--3------------------|--3-----------------||
----------------------------|-------3-------------|--3----------------*||
----------------------------|--0----L----3--------|--5----------------*||
--L----------3---------L----|---------------------|--3-----------------||
----------------------------|---------------------|--------------------||




Duration Legend
---------------
W - whole
H - half
Q - quarter
E - 8th
S - 16th
T - 32nd
X - 64th
. - note dotted
|-n-|  - n-tuplets


Tablature Legend
----------------
L - tied note
x - dead note
g - grace note
(n) - ghost note
> - accentuded note
NH - natural harmonic
AH - artificial harmonic
TH - tapped harmonic
SH - semi harmonic
PH - pitch harmonic
h - hammer on
p - pull off
b - bend
br - bendRelease
pb - preBend
pbr - preBendRelease
brb - bendReleaseBend
\n/ - tremolo bar dip
\n - tremolo bar dive
-/n - tremolo bar Release up
/n\ - tremolo bar inverted dip
/n - tremolo bar return
-\n - tremolo bar Release down
S - shift slide
s - legato slide
/ -  slide into from below or out of upwards
\ -  slide into from above or out of downwards
~ - vibrato
W - wide vibrato
tr - trill
TP - tremolo picking
T - tapping
S - slap
P - pop
< - fade in
^ - brush up
v - brush down
Login or Register to remove this ad.

2 comments on Living With Determination

Nice!

5

A great tab from a great song.
Nicely done! ^^

Haime, seriously?

5

One word : awesome.