Ads

Kimi no Kioku (Shin Megami Tensei: Persona 3) Guitar Tab

Submitted: Oct 26, 2013 by corntastic

2.8
Average: 2.8 (5 votes)
Download | Listen
Game: Shin Megami Tensei: Persona 3
Composer(s): Shoji Meguro
Style: Transcription

AutoScroll: Slow | Medium | Fast
Kimi no Kioku
Persona 3
Shouji Meguro, Kawamura Yumi
corntastic
23 10 2013


e-------------------------------------------------------------------------
B--12-10------------------------------------------------------------------
G---------9--9--------------9--11-----------9-----------------------------
D---------------12----9--12--------9--12-------12-11-11-11-12-11-11-9-----
A-------------------------------------------------------------------------
E-------------------------------------------------------------------------

e------------------------------------------10.-9.----------------------------
B------12-10------------------------10-12---------10.------------------------
G----9--------9--9-------------9-11-------------------9.-9----9-11-----------
D--9----------------12----9-12-------------------------------------12--9-12--
A----------------------------------------------------------------------------
E----------------------------------------------------------------------------

e------------------------------------------------------------------------------------------
B--12-10------------12-10------------------------------------------------------------------
G---------9--9-------------9--9--------------------------------------9---------------------
D---------------12---------------12-------9-11-11-11-11-11-11-11-11-----11------------9-9--
A--------------------------------------12-----------------------------------12----12-------
E------------------------------------------------------------------------------------------

e------------------------------------10.-9.---------------------------
B--12-10------------12-10-------------------10.-----------------------
G---------9--9-------------9--9-----------------10--9-----------------
D---------------12---------------12--------------------12-------------
A---------------------------------------------------------------------
E---------------------------------------------------------------------

______________________________________________________________________________________


e-------------------------------------------------------------------------
B---------10----10----------------------10----10--------------------------
G------9----------------9----9------------------------9-------------------
D--12---------------12---------12-11-12-----------12----------------------
A-------------------------------------------------------------------------
E-------------------------------------------------------------------------

______________________________________________________________________________________


e-------------------------------------------------------------------------
B--10-10--12-12-----------------------------------------------------------
G-------------------------------------------------------------------------
D-------------------------------------------------------------------------
A-------------------------------------------------------------------------
E------------------------------------------------------------------------- x3

e-------------------------------------------------------------------------
B--10-10-10-12-12--10-10-10-12-12-10--10-10-10-12-12----------------------
G-------------------------------------------------------------------------
D-------------------------------------------------------------------------
A-------------------------------------------------------------------------
E-------------------------------------------------------------------------

e-------------------------------------------------------------------------
B--10-10--12-12--10-10-10-12-12--10-10--12-12--10-10-10-12-12-10----------
G-------------------------------------------------------------------------
D-------------------------------------------------------------------------
A-------------------------------------------------------------------------
E-------------------------------------------------------------------------

e--------------------------------------------------------------------------10--10-----
B--10--10-10--12-12----10--10--12-12---------------------------10----12-----------10--
G---------------------------------------9--9------9s7s9--11---------------------------
D---------------------------------------------12--------------------------------------
A-------------------------------------------------------------------------------------
E-------------------------------------------------------------------------------------


e-------------------------------------------------------------------------
B--10-10--12-12-----------------------------------------------------------
G-------------------------------------------------------------------------
D-------------------------------------------------------------------------
A-------------------------------------------------------------------------
E------------------------------------------------------------------------- x3

e-------------------------------------------------------------------------
B--10-10-10-12-12--10-10-10-12-12-10--10-10-10-12-12----------------------
G-------------------------------------------------------------------------
D-------------------------------------------------------------------------
A-------------------------------------------------------------------------
E-------------------------------------------------------------------------

e-------------------------------------------------------------------------
B--10-10--12-12--10-10-10-12-12--10-10--12-12--10-10-10-12-12-10----------
G-------------------------------------------------------------------------
D-------------------------------------------------------------------------
A-------------------------------------------------------------------------
E-------------------------------------------------------------------------

e------------------------------------------------------------------------------------------
B--10--10-10--12-12----10--10-10--12-12---------------------10-----------------------------
G------------------------------------------9--9------9--11--------------9----------9-9-----
D------------------------------------------------12---------------12---------12*-------12--
A------------------------------------------------------------------------------------------
E------------------------------------------------------------------------------------------
* - Omit D12 the first time. Play the second time, but do not play the last 3 notes.
Login or Register to remove this ad.