Ads

Danger Zone (Shin Megami Tensei: Persona 3 Portable) Guitar Tab

Submitted: Dec 19, 2011 by Hitoshura89 (Last updated: Dec 22, 2011)

0
Download | Listen
Game: Shin Megami Tensei: Persona 3 Portable
Composer(s): Shoji Meguro
Style: Alternate picking, Transcription
Series: Megami Tensei

AutoScroll: Slow | Medium | Fast
Danger Zone
Game: Persona 3 Portable
Composer: Shoji Meguro
Tuning: Standard
Tabbed by: Hitoshura89
12-18-11

Intro

E|-------------------------------------------------------------------------------|
B|-------------------------------------------------------------------------------|
G|-------------------------------------------------------------------------------|
D|---444--666--7--222--444--5--444--666--7--222--444--5--444--666--7--222--444--5|
A|---222--444--5--000--222--3--222--444--5--000--222--3--222--444--5--000--222--3|
E|-------------------------------------------------------------------------------|


Verse 1

E|------------------------------------------------------------------------|
B|-----10-8-7-8-7H8-------------------------------------------------------|
G|--------------------7-6-6H7----------7-6-7-6---------7-6-7-10-7-9B-99-7~|
D|---9--------------9---------77-99--9---------7-7~--9--------------------|
A|------------------------------------------------------------------------|
E|------------------------------------------------------------------------|
                                                                    
E|------------------------------------------------------------------------|
B|-----10-8-7-8-7H8------------------------------------------10-8-7~------|
G|--------------------7-6-6H7-----------------777-6-7-9-9B-7--------------|
D|---9--------------9---------77-99---------9-----------------------------|
A|----------------------------------9--7-10-------------------------------|
E|------------------------------------------------------------------------|


VERSE 2

E|-----------------------------------------------------------7---------------|
B|--------------------------10--8--7H8-------------7-8-10------10~-8-7-8-----|
G|----------7-6----7--6--7----------------7~--7-9---------77-------------6~--|
D|--44---6------4~---------------------9-------------------------------------|
A|--22---4-------------------------------------------------------------------|
E|---------------------------------------------------------------------------|



ENDING

E|----------------------------------------------------------------------------|
B|----------------------------------------------------------------------------|
G|----------------------------------------------------------------------------|
D|--------------------------444--666-7--222--444--5----444--666-7--222--444--5|
A|---22--44--55--77---------222--444-5--000--222--3----222--444-5--000--222--3|
E|---00--22--33--55-----------------------------------------------------------|
Login or Register to remove this ad.

3 comments on Danger Zone

I messed up on the intro and ending.

I messed up on the intro and ending it goes.
Intro

E|-------------------------------------------------------------------------------|
B|-------------------------------------------------------------------------------|
G|-------------------------------------------------------------------------------|
D|---444--666--7--222--444--5--444--666--7--222--444--5--444--666--7--222--444--5|
A|---222--444--5--000--222--3--222--444--5--000--222--3--222--444--5--000--222--3|
E|-------------------------------------------------------------------------------|

Ending

E|-------------------------------------------------------------------------------|
B|-------------------------------------------------------------------------------|
G|-------------------------------------------------------------------------------|
D|------------------------------444--666-7--222--444--5----444--666-7--222--444--5--|
A|-------22--44--55--77----222--444-5--000--222--3----222--444-5--000--222--3--|
E|-------00--22--33--55----------------------------------------------------------|

..

..

Updated

Updated