Heartful Cry (Shin Megami Tensei: Persona 3 FES) Guitar Tab

Submitted: Feb 27, 2012 by Hitoshura89

4.8
Average: 4.8 (5 votes)
Download | Listen
Game: Shin Megami Tensei: Persona 3 FES
Composer(s): Shoji Meguro
Style: Transcription
Series: Megami Tensei

AutoScroll: Slow | Medium | Fast
Heartful Cry
Game:Shin Megami Tensei: Persona 3 FES
Composer: Shoji Meguro
Tabbed By: Hitoshura89
Tuning: Standard

For Lead Guitar Only


*=Palm Muting
B=Bend
H=Hammer On
P=Pull Off
~=Vibrato
X=Mute Out

Intro

E|---------------------------|
B|---------------------------|
G|---------------------------|
D|------6----6---6---6----7--|  X4
A|------4----4---4---4----5--|
E|--0-0----0---0---0----0----|
    * *    *   *   *    *

Verse Lead Guitar


E|---------------------------------|
B|---------------------------------|
G|---------------------------------|
D|--4--6-X-6-4--4--6-X-6-4--4-6----| X11
A|--2--4-X-4-2--2--4-X-4-2--2-4----|
E|---------------------------------|

Verse 2

E|--12-9-11~--11------------12----9~-9-------------------9-11~--11--11---------------|
B|---------------12-9----9-----12------12-12-10-10-9--12---------------12-9----9-----| 
G|--------------------11----------------------------------------------------11-------|
D|-----------------------------------------------------------------------------------|
A|-----------------------------------------------------------------------------------|
E|-----------------------------------------------------------------------------------|



E|----------9~-9-------------------|
B|-------12------12-12-10-10-9-9~--|
G|-----9---------------------------|
D|--11-----------------------------|
A|---------------------------------|
E|---------------------------------|


Verse 3



E|--12-9-11~--11------------12----9~-9----------------------9-11~--11--11---------------|
B|---------------12-9----9-----12------12-12-10-10-9-----9----------------12-9----9-----| 
G|--------------------11------------------------------11-----------------------11-------|
D|--------------------------------------------------------------------------------------|
A|--------------------------------------------------------------------------------------|
E|--------------------------------------------------------------------------------------|                                              


E|----------------------------------------------|
B|-------10/12\10--10-9--9-9H10P9---------------|
G|-----9--------------------------11--9-8-8~~---|
D|--11------------------------------------------|
A|----------------------------------------------|
E|----------------------------------------------|




Solo

E|--19-------------------------------16-17-16H17P16----------16-16B--|
B|-----17--17-16-17-17/19-17~--17-19----------------19-17-16---------|
G|-------------------------------------------------------------------|
D|-------------------------------------------------------------------|
A|-------------------------------------------------------------------|
E|-------------------------------------------------------------------|

E|--19-------------------------------16-17-16H17P16-------------------------|
B|-----17--17-16-17-17/19-17~--17-19----------------19-17-16--16-17P16-14~--|
G|--------------------------------------------------------------------------|
D|--------------------------------------------------------------------------|
A|--------------------------------------------------------------------------|
E|--------------------------------------------------------------------------|


End

E|--------------------------------------------------------------------|
B|--------------------------------------------------------------------|
G|--------------------------------------------------------------------|
D|---------------6--6-6-6-6-6-6----------------------------6--6--4-9--|
A|--7-7-7--6-6-6-4--4-4-4-4-4-4--4-4-4-4-4-4--6-6-6-6-6-6--4--4--2-7--| 
E|--5-5-5--4-4-4-----------------2-2-2-2-2-2--4-4-4-4-4-4-------------|
    * * *  * * *    * * * * * *  * * * * * *  * * * * * *

E|-----------------------------------------------------------------------|
B|-----------------------------------------------------------------------|
G|-----------------------------------------------------------------------|
D|---------------6--6-6-6-6-6-6----------------------------6--6-6-6-6-6-6|
A|--7-7-7--6-6-6-4--4-4-4-4-4-4--4-4-4-4-4-4--6-6-6-6-6-6--4--4-4-4-4-4-4| 
E|--5-5-5--4-4-4-----------------2-2-2-2-2-2--4-4-4-4-4-4----------------|
    * * *  * * *    * * * * * *  * * * * * *  * * * * * *     * * * * * *
Login or Register to remove this ad.

3 comments on Heartful Cry

Awesome tab

Thank you so much for the tabs, I have been wanting to play this theme.

Confused, need help

2

hey, can i ask? i'm kinda confused about this. i only can play the solo part, and i can't for the other. evearything but solo part was cant get into the song. please help
orry for the bad english

Sorry

4

sorry, I already got a way to use the other. but i still confused for the intro and end part.