Title Loop 2 (Shin Megami Tensei III: Nocturne) Guitar Tab

Submitted: Feb 28, 2012 by Hitoshura89

5
Average: 5 (2 votes)
Download | Listen
Game: Shin Megami Tensei III: Nocturne
Composer(s): Shoji Meguro
Style: Alternate picking, Transcription
Series: Megami Tensei

AutoScroll: Slow | Medium | Fast
Title Loop 2
Game: Shin Megami Tensei III: Nocturne
Composer: Shoji Meguro
Tabbed by: Hitoshura89
Tuning: E Standard

/=Slide Down
~=Vibrato

Intro

E|-----------------------------------------------------|
B|------8--8-10-12---------12/15--12-------------------|
G|--7-9------------9--9-12-----------12--9----7-9------|
D|-----------------------------------------10------7~--|
A|-----------------------------------------------------|
E|-----------------------------------------------------|

E|-----------------------------------------------------|
B|------8--8-10-12---------12/15--12--------------10~--|
G|--7-9------------9--9-12-----------12--9----7-9------|
D|-----------------------------------------10----------|
A|-----------------------------------------------------|
E|-----------------------------------------------------|

Verse starts at 1:25

E|-------------------------------------------------------|
B|------6/8--8-10-12---------12/15--12-------------------|
G|--7-9--------------9--9-12-----------12--9----7-9------| X3
D|-------------------------------------------10------7~--|
A|-------------------------------------------------------|
E|-------------------------------------------------------|

E|-------------------------------------------------------|
B|------6/8--8-10-12---------12/15--12--------------10~--|
G|--7-9--------------9--9-12-----------12--9----7-9------| X1
D|-------------------------------------------10----------|
A|-------------------------------------------------------|
E|-------------------------------------------------------|


End

E|-----------|
B|------8~---|
G|--7-9------|
D|-----------|
A|-----------|
E|-----------|
Login or Register to remove this ad.